  0
SECTION
  2
HEADER
  9
$ACADVER
  1
AC1014
  9
$ACADMAINTVER
 70
     5
  9
$DWGCODEPAGE
  3
ANSI_1252
  9
$INSBASE
 10
392.9
 20
1632.223799
 30
0.0
  9
$EXTMIN
 10
153.913598
 20
1314.710822
 30
-0.000026
  9
$EXTMAX
 10
631.844787
 20
1825.17957
 30
0.000039
  9
$LIMMIN
 10
0.0
 20
0.0
  9
$LIMMAX
 10
3360.0
 20
2376.0
  9
$ORTHOMODE
 70
     1
  9
$REGENMODE
 70
     1
  9
$FILLMODE
 70
     1
  9
$QTEXTMODE
 70
     0
  9
$MIRRTEXT
 70
     0
  9
$DRAGMODE
 70
     2
  9
$LTSCALE
 40
1.0
  9
$OSMODE
 70
     0
  9
$ATTMODE
 70
     1
  9
$TEXTSIZE
 40
3.5
  9
$TRACEWID
 40
0.05
  9
$TEXTSTYLE
  7
ROMANS
  9
$CLAYER
  8
035-DWG
  9
$CELTYPE
  6
BYLAYER
  9
$CECOLOR
 62
   256
  9
$CELTSCALE
 40
1.0
  9
$DELOBJ
 70
     1
  9
$DISPSILH
 70
     0
  9
$DIMSCALE
 40
8.0
  9
$DIMASZ
 40
2.5
  9
$DIMEXO
 40
1.5
  9
$DIMDLI
 40
5.0
  9
$DIMRND
 40
0.0
  9
$DIMDLE
 40
0.0
  9
$DIMEXE
 40
1.0
  9
$DIMTP
 40
0.0
  9
$DIMTM
 40
0.0
  9
$DIMTXT
 40
3.0
  9
$DIMCEN
 40
-2.0
  9
$DIMTSZ
 40
0.0
  9
$DIMTOL
 70
     0
  9
$DIMLIM
 70
     0
  9
$DIMTIH
 70
     0
  9
$DIMTOH
 70
     0
  9
$DIMSE1
 70
     0
  9
$DIMSE2
 70
     0
  9
$DIMTAD
 70
     1
  9
$DIMZIN
 70
     8
  9
$DIMBLK
  1

  9
$DIMASO
 70
     1
  9
$DIMSHO
 70
     1
  9
$DIMPOST
  1

  9
$DIMAPOST
  1

  9
$DIMALT
 70
     0
  9
$DIMALTD
 70
     2
  9
$DIMALTF
 40
25.4
  9
$DIMLFAC
 40
1.0
  9
$DIMTOFL
 70
     1
  9
$DIMTVP
 40
0.0
  9
$DIMTIX
 70
     0
  9
$DIMSOXD
 70
     0
  9
$DIMSAH
 70
     0
  9
$DIMBLK1
  1

  9
$DIMBLK2
  1

  9
$DIMSTYLE
  2
STANDAARD
  9
$DIMCLRD
 70
   256
  9
$DIMCLRE
 70
   256
  9
$DIMCLRT
 70
   256
  9
$DIMTFAC
 40
0.75
  9
$DIMGAP
 40
1.5
  9
$DIMJUST
 70
     0
  9
$DIMSD1
 70
     0
  9
$DIMSD2
 70
     0
  9
$DIMTOLJ
 70
     1
  9
$DIMTZIN
 70
     8
  9
$DIMALTZ
 70
     8
  9
$DIMALTTZ
 70
     8
  9
$DIMFIT
 70
     3
  9
$DIMUPT
 70
     0
  9
$DIMUNIT
 70
     2
  9
$DIMDEC
 70
     0
  9
$DIMTDEC
 70
     1
  9
$DIMALTU
 70
     2
  9
$DIMALTTD
 70
     2
  9
$DIMTXSTY
  7
ROMANS
  9
$DIMAUNIT
 70
     0
  9
$LUNITS
 70
     2
  9
$LUPREC
 70
     4
  9
$SKETCHINC
 40
0.1
  9
$FILLETRAD
 40
1.0
  9
$AUNITS
 70
     0
  9
$AUPREC
 70
     4
  9
$MENU
  1
wtb2
  9
$ELEVATION
 40
0.0
  9
$PELEVATION
 40
0.0
  9
$THICKNESS
 40
0.0
  9
$LIMCHECK
 70
     0
  9
$BLIPMODE
 70
     0
  9
$CHAMFERA
 40
0.0
  9
$CHAMFERB
 40
0.0
  9
$CHAMFERC
 40
0.0
  9
$CHAMFERD
 40
0.0
  9
$SKPOLY
 70
     0
  9
$TDCREATE
 40
2451578.409790035
  9
$TDUPDATE
 40
2452584.355191053
  9
$TDINDWG
 40
2.5832886574
  9
$TDUSRTIMER
 40
2.5832886574
  9
$USRTIMER
 70
     1
  9
$ANGBASE
 50
0.0
  9
$ANGDIR
 70
     0
  9
$PDMODE
 70
     3
  9
$PDSIZE
 40
0.0
  9
$PLINEWID
 40
0.0
  9
$COORDS
 70
     2
  9
$SPLFRAME
 70
     0
  9
$SPLINETYPE
 70
     6
  9
$SPLINESEGS
 70
     8
  9
$ATTDIA
 70
     0
  9
$ATTREQ
 70
     1
  9
$HANDLING
 70
     1
  9
$HANDSEED
  5
243
  9
$SURFTAB1
 70
     6
  9
$SURFTAB2
 70
     6
  9
$SURFTYPE
 70
     6
  9
$SURFU
 70
     6
  9
$SURFV
 70
     6
  9
$UCSNAME
  2

  9
$UCSORG
 10
0.0
 20
0.0
 30
0.0
  9
$UCSXDIR
 10
1.0
 20
0.0
 30
0.0
  9
$UCSYDIR
 10
0.0
 20
1.0
 30
0.0
  9
$PUCSNAME
  2

  9
$PUCSORG
 10
0.0
 20
0.0
 30
0.0
  9
$PUCSXDIR
 10
1.0
 20
0.0
 30
0.0
  9
$PUCSYDIR
 10
0.0
 20
1.0
 30
0.0
  9
$USERI1
 70
     0
  9
$USERI2
 70
     0
  9
$USERI3
 70
     0
  9
$USERI4
 70
     0
  9
$USERI5
 70
     0
  9
$USERR1
 40
0.0
  9
$USERR2
 40
0.0
  9
$USERR3
 40
0.0
  9
$USERR4
 40
0.0
  9
$USERR5
 40
0.0
  9
$WORLDVIEW
 70
     1
  9
$SHADEDGE
 70
     3
  9
$SHADEDIF
 70
    70
  9
$TILEMODE
 70
     1
  9
$MAXACTVP
 70
    16
  9
$PINSBASE
 10
0.0
 20
0.0
 30
0.0
  9
$PLIMCHECK
 70
     0
  9
$PEXTMIN
 10
1.000000E+20
 20
1.000000E+20
 30
1.000000E+20
  9
$PEXTMAX
 10
-1.000000E+20
 20
-1.000000E+20
 30
-1.000000E+20
  9
$PLIMMIN
 10
0.0
 20
0.0
  9
$PLIMMAX
 10
12.0
 20
9.0
  9
$UNITMODE
 70
     0
  9
$VISRETAIN
 70
     0
  9
$PLINEGEN
 70
     0
  9
$PSLTSCALE
 70
     0
  9
$TREEDEPTH
 70
  3020
  9
$PICKSTYLE
 70
     1
  9
$CMLSTYLE
  2
STANDARD
  9
$CMLJUST
 70
     0
  9
$CMLSCALE
 40
1.0
  9
$PROXYGRAPHICS
 70
     1
  9
$MEASUREMENT
 70
     0
  0
ENDSEC
  0
SECTION
  2
CLASSES
  0
CLASS
  1
LWPOLYLINE
  2
AcDbPolyline
  3
"AutoCAD"
 90
        0
280
     0
281
     1
  0
CLASS
  1
HATCH
  2
AcDbHatch
  3
"ACAD_SEDONA"
 90
        0
280
     0
281
     1
  0
CLASS
  1
ACMDATUMID
  2
AcmDatumId
  3
AutoCadMServices
 90
      255
280
     1
281
     1
  0
CLASS
  1
ACMFCFRAME
  2
AcmFCF
  3
AutoCadMServices
 90
      255
280
     1
281
     1
  0
CLASS
  1
AMLOADER
  2
AMLoader
  3
AMAcad
 90
        0
280
     0
281
     0
  0
ENDSEC
  0
SECTION
  2
TABLES
  0
TABLE
  2
VPORT
  5
12
100
AcDbSymbolTable
 70
     2
  0
VPORT
  5
242
100
AcDbSymbolTableRecord
100
AcDbViewportTableRecord
  2
*ACTIVE
 70
     0
 10
0.0
 20
0.0
 11
1.0
 21
1.0
 12
392.879192
 22
1569.945196
 13
0.0
 23
0.0
 14
20.0
 24
20.0
 15
40.0
 25
40.0
 16
0.0
 26
0.0
 36
1.0
 17
0.0
 27
0.0
 37
0.0
 40
516.215113
 41
1.650376
 42
50.0
 43
0.0
 44
0.0
 50
0.0
 51
0.0
 71
     0
 72
 20000
 73
     1
 74
     0
 75
     0
 76
     0
 77
     0
 78
     1
  0
ENDTAB
  0
TABLE
  2
LTYPE
  5
D
100
AcDbSymbolTable
 70
     1
  0
LTYPE
  5
E
100
AcDbSymbolTableRecord
100
AcDbLinetypeTableRecord
  2
BYBLOCK
 70
     0
  3

 72
    65
 73
     0
 40
0.0
  0
LTYPE
  5
F
100
AcDbSymbolTableRecord
100
AcDbLinetypeTableRecord
  2
BYLAYER
 70
     0
  3

 72
    65
 73
     0
 40
0.0
  0
LTYPE
  5
5
100
AcDbSymbolTableRecord
100
AcDbLinetypeTableRecord
  2
CONTINUOUS
 70
     0
  3
Solid line
 72
    65
 73
     0
 40
0.0
  0
ENDTAB
  0
TABLE
  2
LAYER
  5
A
100
AcDbSymbolTable
 70
     4
  0
LAYER
  5
4
100
AcDbSymbolTableRecord
100
AcDbLayerTableRecord
  2
0
 70
     0
 62
     8
  6
CONTINUOUS
  0
LAYER
  5
21
100
AcDbSymbolTableRecord
100
AcDbLayerTableRecord
  2
025-DWG
 70
     0
 62
     7
  6
CONTINUOUS
  0
LAYER
  5
1B
100
AcDbSymbolTableRecord
100
AcDbLayerTableRecord
  2
035-DWG
 70
     0
 62
     2
  6
CONTINUOUS
  0
LAYER
  5
37
100
AcDbSymbolTableRecord
100
AcDbLayerTableRecord
  2
DIM-LINE
 70
     0
 62
     7
  6
CONTINUOUS
  0
ENDTAB
  0
TABLE
  2
STYLE
  5
B
100
AcDbSymbolTable
 70
     2
  0
STYLE
  5
C
100
AcDbSymbolTableRecord
100
AcDbTextStyleTableRecord
  2
STANDARD
 70
     0
 40
0.0
 41
1.0
 50
0.0
 71
     0
 42
15.0
  3
txt
  4

  0
STYLE
  5
1C
100
AcDbSymbolTableRecord
100
AcDbTextStyleTableRecord
  2
ROMANS
 70
     0
 40
0.0
 41
1.0
 50
0.0
 71
     0
 42
3.5
  3
romans
  4

  0
ENDTAB
  0
TABLE
  2
VIEW
  5
10
100
AcDbSymbolTable
 70
     0
  0
ENDTAB
  0
TABLE
  2
UCS
  5
11
100
AcDbSymbolTable
 70
     0
  0
ENDTAB
  0
TABLE
  2
APPID
  5
14
100
AcDbSymbolTable
 70
     1
  0
APPID
  5
15
100
AcDbSymbolTableRecord
100
AcDbRegAppTableRecord
  2
ACAD
 70
     0
  0
ENDTAB
  0
TABLE
  2
DIMSTYLE
  5
16
100
AcDbSymbolTable
 70
     1
  0
DIMSTYLE
105
1E
100
AcDbSymbolTableRecord
100
AcDbDimStyleTableRecord
  2
STANDAARD
 70
     0
  3

  4

  5

  6

  7

 40
8.0
 41
2.5
 42
1.5
 43
5.0
 44
1.0
 45
0.0
 46
0.0
 47
0.0
 48
0.0
140
3.0
141
-2.0
142
0.0
143
25.4
144
1.0
145
0.0
146
0.75
147
1.5
 71
     0
 72
     0
 73
     0
 74
     0
 75
     0
 76
     0
 77
     1
 78
     8
170
     0
171
     2
172
     1
173
     0
174
     0
175
     0
176
   256
177
   256
178
   256
270
     2
271
     0
272
     1
273
     2
274
     2
340
1C
275
     0
280
     0
281
     0
282
     0
283
     1
284
     8
285
     8
286
     8
287
     3
288
     0
  0
ENDTAB
  0
TABLE
  2
BLOCK_RECORD
  5
1
100
AcDbSymbolTable
 70
     0
  0
BLOCK_RECORD
  5
2
100
AcDbSymbolTableRecord
100
AcDbBlockTableRecord
  2
*MODEL_SPACE
  0
BLOCK_RECORD
  5
7
100
AcDbSymbolTableRecord
100
AcDbBlockTableRecord
  2
*PAPER_SPACE
  0
ENDTAB
  0
ENDSEC
  0
SECTION
  2
BLOCKS
  0
BLOCK
  5
3
100
AcDbEntity
  8
0
100
AcDbBlockBegin
  2
*MODEL_SPACE
 70
     0
 10
0.0
 20
0.0
 30
0.0
  3
*MODEL_SPACE
  1

  0
ENDBLK
  5
6
100
AcDbEntity
  8
0
100
AcDbBlockEnd
  0
BLOCK
  5
8
100
AcDbEntity
 67
     1
  8
0
100
AcDbBlockBegin
  2
*PAPER_SPACE
 70
     0
 10
0.0
 20
0.0
 30
0.0
  3
*PAPER_SPACE
  1

  0
ENDBLK
  5
9
100
AcDbEntity
 67
     1
  8
0
100
AcDbBlockEnd
  0
ENDSEC
  0
SECTION
  2
ENTITIES
  0
ARC
  5
1F
100
AcDbEntity
  8
035-DWG
100
AcDbCircle
 10
556.631835
 20
1652.429279
 30
0.0
 40
2.2
100
AcDbArc
 50
0.0
 51
78.623705
  0
LINE
  5
20
100
AcDbEntity
  8
025-DWG
100
AcDbLine
 10
558.831835
 20
1652.429279
 30
0.0
 11
550.086581
 21
1652.371599
 31
0.0
  0
ARC
  5
22
100
AcDbEntity
  8
035-DWG
100
AcDbCircle
 10
556.631835
 20
1612.018319
 30
0.0
 40
2.2
100
AcDbArc
 50
281.376295
 51
0.0
  0
LINE
  5
23
100
AcDbEntity
  8
025-DWG
100
AcDbLine
 10
558.831835
 20
1612.018319
 30
0.0
 11
550.086581
 21
1612.075999
 31
0.0
  0
CIRCLE
  5
24
100
AcDbEntity
  8
025-DWG
100
AcDbCircle
 10
392.9
 20
1632.223799
 30
0.0
 40
180.161578
  0
CIRCLE
  5
25
100
AcDbEntity
  8
025-DWG
100
AcDbCircle
 10
392.9
 20
1632.223799
 30
0.0
 40
175.315878
  0
CIRCLE
  5
26
100
AcDbEntity
  8
035-DWG
100
AcDbCircle
 10
392.9
 20
1632.223799
 30
0.0
 40
192.95
  0
ARC
  5
27
100
AcDbEntity
  8
025-DWG
100
AcDbCircle
 10
392.9
 20
1632.223799
 30
0.0
 40
164.515493
100
AcDbArc
 50
187.897933
 51
352.102067
  0
CIRCLE
  5
28
100
AcDbEntity
  8
025-DWG
100
AcDbCircle
 10
392.9
 20
1632.223799
 30
0.0
 40
77.639728
  0
CIRCLE
  5
29
100
AcDbEntity
  8
025-DWG
100
AcDbCircle
 10
392.9
 20
1632.223799
 30
0.0
 40
73.823798
  0
CIRCLE
  5
2A
100
AcDbEntity
  8
035-DWG
100
AcDbCircle
 10
392.9
 20
1632.223799
 30
0.0
 40
121.358579
  0
CIRCLE
  5
2B
100
AcDbEntity
  8
025-DWG
100
AcDbCircle
 10
392.9
 20
1632.223799
 30
0.0
 40
105.042174
  0
CIRCLE
  5
2C
100
AcDbEntity
  8
025-DWG
100
AcDbCircle
 10
392.9
 20
1632.223799
 30
0.0
 40
101.265375
  0
LWPOLYLINE
  5
2D
100
AcDbEntity
  8
035-DWG
100
AcDbPolyline
 90
        6
 70
     0
 43
0.0
 10
381.587554
 20
1373.87797
 10
382.077016
 20
1373.204283
 42
0.395928
 10
382.345985
 20
1373.152974
 10
383.935225
 20
1374.161537
 42
0.395928
 10
384.003321
 20
1374.426753
 10
383.602154
 20
1375.156474
  0
LWPOLYLINE
  5
2E
100
AcDbEntity
  8
035-DWG
100
AcDbPolyline
 90
        6
 70
     0
 43
0.0
 10
404.273284
 20
1373.833768
 10
403.783822
 20
1373.160081
 42
0.395928
 10
403.81814
 20
1372.888421
 10
405.268442
 20
1371.688627
 42
0.395928
 10
405.541721
 20
1371.70582
 10
406.111759
 20
1372.312849
  0
LWPOLYLINE
  5
2F
100
AcDbEntity
  8
035-DWG
100
AcDbPolyline
 90
        4
 70
     0
 43
0.0
 10
403.978756
 20
1373.428385
 42
0.417384
 10
403.932753
 20
1373.709007
 42
0.026016
 10
402.290787
 20
1374.75103
 42
0.417384
 10
402.017286
 20
1374.673171
  0
LINE
  5
30
100
AcDbEntity
  8
035-DWG
100
AcDbLine
 10
369.896046
 20
1440.65
 30
0.0
 11
377.874074
 21
1370.356209
 31
0.0
  0
LINE
  5
31
100
AcDbEntity
  8
035-DWG
100
AcDbLine
 10
407.925926
 20
1370.356209
 30
0.0
 11
415.903954
 21
1440.65
 31
0.0
  0
ARC
  5
32
100
AcDbEntity
  8
035-DWG
100
AcDbCircle
 10
392.9
 20
1358.243755
 30
0.0
 40
19.3
100
AcDbArc
 50
302.959184
 51
237.040816
  0
POLYLINE
  5
33
100
AcDbEntity
  8
DIM-LINE
100
AcDb2dPolyline
 66
     1
 10
0.0
 20
0.0
 30
0.0
  0
VERTEX
  5
34
100
AcDbEntity
  8
DIM-LINE
100
AcDbVertex
100
AcDb2dVertex
 10
390.649964
 20
1363.745209
 30
0.0
 42
0.00529
  0
VERTEX
  5
35
100
AcDbEntity
  8
DIM-LINE
100
AcDbVertex
100
AcDb2dVertex
 10
390.491218
 20
1364.921386
 30
0.0
 42
0.018284
  0
VERTEX
  5
36
100
AcDbEntity
  8
DIM-LINE
100
AcDbVertex
100
AcDb2dVertex
 10
389.75179
 20
1368.955038
 30
0.0
  0
SEQEND
  5
38
100
AcDbEntity
  8
DIM-LINE
  0
LINE
  5
39
100
AcDbEntity
  8
035-DWG
100
AcDbLine
 10
384.076334
 20
1369.743755
 30
0.0
 11
392.9
 21
1369.743755
 31
0.0
  0
ARC
  5
3A
100
AcDbEntity
  8
DIM-LINE
100
AcDbCircle
 10
392.9
 20
1349.15684
 30
0.0
 40
18.0
100
AcDbArc
 50
240.491879
 51
278.545248
  0
POLYLINE
  5
3B
100
AcDbEntity
  8
DIM-LINE
100
AcDb2dPolyline
 66
     1
 10
0.0
 20
0.0
 30
0.0
  0
VERTEX
  5
3C
100
AcDbEntity
  8
DIM-LINE
100
AcDbVertex
100
AcDb2dVertex
 10
386.985266
 20
1350.569952
 30
0.0
 42
0.069856
  0
VERTEX
  5
3D
100
AcDbEntity
  8
DIM-LINE
100
AcDbVertex
100
AcDb2dVertex
 10
389.2346
 20
1349.771986
 30
0.0
 42
0.038125
  0
VERTEX
  5
3E
100
AcDbEntity
  8
DIM-LINE
100
AcDbVertex
100
AcDb2dVertex
 10
390.531391
 20
1349.608764
 30
0.0
  0
SEQEND
  5
3F
100
AcDbEntity
  8
DIM-LINE
  0
ARC
  5
40
100
AcDbEntity
  8
025-DWG
100
AcDbCircle
 10
392.9
 20
1340.750303
 30
0.0
 40
21.7
100
AcDbArc
 50
255.565184
 51
270.0
  0
ARC
  5
41
100
AcDbEntity
  8
035-DWG
100
AcDbCircle
 10
392.9
 20
1340.750303
 30
0.0
 40
25.0
100
AcDbArc
 50
238.243136
 51
270.0
  0
ARC
  5
42
100
AcDbEntity
  8
035-DWG
100
AcDbCircle
 10
392.9
 20
1340.750303
 30
0.0
 40
22.0
100
AcDbArc
 50
234.656342
 51
270.0
  0
ARC
  5
43
100
AcDbEntity
  8
025-DWG
100
AcDbCircle
 10
392.9
 20
1340.750303
 30
0.0
 40
24.7
100
AcDbArc
 50
252.745186
 51
270.0
  0
ARC
  5
44
100
AcDbEntity
  8
DIM-LINE
100
AcDbCircle
 10
392.9
 20
1341.009307
 30
0.0
 40
18.0
100
AcDbArc
 50
254.983219
 51
311.723133
  0
LINE
  5
45
100
AcDbEntity
  8
025-DWG
100
AcDbLine
 10
379.094658
 20
1325.843533
 30
0.0
 11
380.080193
 21
1328.95379
 31
0.0
  0
LINE
  5
46
100
AcDbEntity
  8
025-DWG
100
AcDbLine
 10
378.285688
 20
1328.085885
 30
0.0
 11
377.830828
 21
1327.201241
 31
0.0
  0
ARC
  5
47
100
AcDbEntity
  8
DIM-LINE
100
AcDbCircle
 10
392.9
 20
1341.009307
 30
0.0
 40
18.0
100
AcDbArc
 50
228.276867
 51
239.99616
  0
ARC
  5
48
100
AcDbEntity
  8
035-DWG
100
AcDbCircle
 10
382.9
 20
1324.594808
 30
0.0
 40
6.0
100
AcDbArc
 50
152.788983
 51
238.243136
  0
LINE
  5
49
100
AcDbEntity
  8
035-DWG
100
AcDbLine
 10
378.808672
 20
1325.934152
 30
0.0
 11
382.119725
 21
1336.383531
 31
0.0
  0
ARC
  5
4A
100
AcDbEntity
  8
035-DWG
100
AcDbCircle
 10
381.752402
 20
1325.355835
 30
0.0
 40
3.0
100
AcDbArc
 50
168.885383
 51
238.243136
  0
ARC
  5
4B
100
AcDbEntity
  8
025-DWG
100
AcDbCircle
 10
381.752402
 20
1325.355835
 30
0.0
 40
2.7
100
AcDbArc
 50
168.885383
 51
238.243136
  0
ARC
  5
4C
100
AcDbEntity
  8
025-DWG
100
AcDbCircle
 10
392.9
 20
1340.750303
 30
0.0
 40
21.7
100
AcDbArc
 50
234.656342
 51
242.76851
  0
ARC
  5
4D
100
AcDbEntity
  8
025-DWG
100
AcDbCircle
 10
392.9
 20
1340.750303
 30
0.0
 40
24.7
100
AcDbArc
 50
238.243136
 51
240.950051
  0
ARC
  5
4E
100
AcDbEntity
  8
025-DWG
100
AcDbCircle
 10
382.9
 20
1324.594808
 30
0.0
 40
5.7
100
AcDbArc
 50
152.788983
 51
238.243136
  0
LINE
  5
4F
100
AcDbEntity
  8
025-DWG
100
AcDbLine
 10
377.349295
 20
1369.674658
 30
0.0
 11
377.349295
 21
1370.787795
 31
0.0
  0
POLYLINE
  5
50
100
AcDbEntity
  8
025-DWG
100
AcDb2dPolyline
 66
     1
 10
0.0
 20
0.0
 30
0.0
  0
VERTEX
  5
51
100
AcDbEntity
  8
025-DWG
100
AcDbVertex
100
AcDb2dVertex
 10
381.539699
 20
1358.65789
 30
0.0
 42
0.015711
  0
VERTEX
  5
52
100
AcDbEntity
  8
025-DWG
100
AcDbVertex
100
AcDb2dVertex
 10
381.220106
 20
1359.21848
 30
0.0
 42
0.044824
  0
VERTEX
  5
53
100
AcDbEntity
  8
025-DWG
100
AcDbVertex
100
AcDb2dVertex
 10
380.123804
 20
1360.693534
 30
0.0
 42
0.044824
  0
SEQEND
  5
54
100
AcDbEntity
  8
025-DWG
  0
POLYLINE
  5
55
100
AcDbEntity
  8
DIM-LINE
100
AcDb2dPolyline
 66
     1
 10
0.0
 20
0.0
 30
0.0
  0
VERTEX
  5
56
100
AcDbEntity
  8
DIM-LINE
100
AcDbVertex
100
AcDb2dVertex
 10
386.800799
 20
1360.387111
 30
0.0
 42
0.008603
  0
VERTEX
  5
57
100
AcDbEntity
  8
DIM-LINE
100
AcDbVertex
100
AcDb2dVertex
 10
386.279052
 20
1361.370344
 30
0.0
 42
0.029301
  0
VERTEX
  5
58
100
AcDbEntity
  8
DIM-LINE
100
AcDbVertex
100
AcDb2dVertex
 10
385.276453
 20
1362.956611
 30
0.0
 42
0.091649
  0
VERTEX
  5
59
100
AcDbEntity
  8
DIM-LINE
100
AcDbVertex
100
AcDb2dVertex
 10
383.991776
 20
1364.191821
 30
0.0
 42
0.05982
  0
VERTEX
  5
5A
100
AcDbEntity
  8
DIM-LINE
100
AcDbVertex
100
AcDb2dVertex
 10
381.561078
 20
1365.406674
 30
0.0
  0
SEQEND
  5
5B
100
AcDbEntity
  8
DIM-LINE
  0
LWPOLYLINE
  5
5C
100
AcDbEntity
  8
035-DWG
100
AcDbPolyline
 90
        4
 70
     0
 43
0.0
 10
381.882082
 20
1373.472586
 42
0.417384
 10
381.600979
 20
1373.515552
 42
0.026016
 10
380.102561
 20
1372.275953
 42
0.417384
 10
380.092093
 20
1371.991778
  0
LWPOLYLINE
  5
5D
100
AcDbEntity
  8
035-DWG
100
AcDbPolyline
 90
        6
 70
     0
 43
0.0
 10
375.454988
 20
1366.494309
 10
376.208458
 20
1366.139753
 42
0.395928
 10
376.468875
 20
1366.224368
 10
377.375658
 20
1367.8738
 42
0.395928
 10
377.307562
 20
1368.139017
 10
376.604471
 20
1368.585212
  0
LWPOLYLINE
  5
5E
100
AcDbEntity
  8
035-DWG
100
AcDbPolyline
 90
        4
 70
     0
 43
0.0
 10
378.440974
 20
1370.2541
 42
0.417384
 10
378.158017
 20
1370.225809
 42
0.026016
 10
377.01495
 20
1368.652512
 42
0.417384
 10
377.075482
 20
1368.374662
  0
LWPOLYLINE
  5
5F
100
AcDbEntity
  8
035-DWG
100
AcDbPolyline
 90
        6
 70
     0
 43
0.0
 10
378.054884
 20
1370.573501
 10
378.696508
 20
1370.042703
 42
0.395928
 10
378.969787
 20
1370.059897
 10
380.258279
 20
1371.432001
 42
0.395928
 10
380.258279
 20
1371.70582
 10
379.688241
 20
1372.312849
  0
LWPOLYLINE
  5
60
100
AcDbEntity
  8
035-DWG
100
AcDbPolyline
 90
        4
 70
     0
 43
0.0
 10
374.443431
 20
1361.802812
 42
0.417384
 10
374.209103
 20
1361.641704
 42
0.026016
 10
373.965368
 20
1359.712337
 42
0.417384
 10
374.152268
 20
1359.498017
  0
LWPOLYLINE
  5
61
100
AcDbEntity
  8
035-DWG
100
AcDbPolyline
 90
        6
 70
     0
 43
0.0
 10
373.951225
 20
1361.896705
 10
374.769198
 20
1361.740668
 42
0.395928
 10
375.000391
 20
1361.887387
 10
375.468489
 20
1363.710508
 42
0.395928
 10
375.336576
 20
1363.950457
 10
374.544609
 20
1364.207783
  0
LWPOLYLINE
  5
62
100
AcDbEntity
  8
035-DWG
100
AcDbPolyline
 90
        4
 70
     0
 43
0.0
 10
375.908379
 20
1366.280959
 42
0.417384
 10
375.641348
 20
1366.183188
 42
0.026016
 10
374.925456
 20
1364.37505
 42
0.417384
 10
375.053184
 20
1364.120983
  0
LINE
  5
63
100
AcDbEntity
  8
025-DWG
100
AcDbLine
 10
382.7
 20
1353.049999
 30
0.0
 11
382.7
 21
1346.512986
 31
0.0
  0
POLYLINE
  5
64
100
AcDbEntity
  8
025-DWG
100
AcDb2dPolyline
 66
     1
 10
0.0
 20
0.0
 30
0.0
  0
VERTEX
  5
65
100
AcDbEntity
  8
025-DWG
100
AcDbVertex
100
AcDb2dVertex
 10
382.699023
 20
1353.025812
 30
0.0
 42
0.056447
  0
VERTEX
  5
66
100
AcDbEntity
  8
025-DWG
100
AcDbVertex
100
AcDb2dVertex
 10
382.624916
 20
1355.336281
 30
0.0
 42
0.024827
  0
VERTEX
  5
67
100
AcDbEntity
  8
025-DWG
100
AcDbVertex
100
AcDb2dVertex
 10
382.427921
 20
1356.336406
 30
0.0
 42
0.044824
  0
SEQEND
  5
68
100
AcDbEntity
  8
025-DWG
  0
POLYLINE
  5
69
100
AcDbEntity
  8
DIM-LINE
100
AcDb2dPolyline
 66
     1
 10
0.0
 20
0.0
 30
0.0
  0
VERTEX
  5
6A
100
AcDbEntity
  8
DIM-LINE
100
AcDbVertex
100
AcDb2dVertex
 10
388.569626
 20
1352.902906
 30
0.0
 42
0.047166
  0
VERTEX
  5
6B
100
AcDbEntity
  8
DIM-LINE
100
AcDbVertex
100
AcDb2dVertex
 10
388.274486
 20
1356.396609
 30
0.0
 42
0.003614
  0
VERTEX
  5
6C
100
AcDbEntity
  8
DIM-LINE
100
AcDbVertex
100
AcDb2dVertex
 10
388.24476
 20
1356.554781
 30
0.0
 42
0.020614
  0
SEQEND
  5
6D
100
AcDbEntity
  8
DIM-LINE
  0
LINE
  5
6E
100
AcDbEntity
  8
025-DWG
100
AcDbLine
 10
382.7
 20
1340.592628
 30
0.0
 11
382.7
 21
1338.195918
 31
0.0
  0
LINE
  5
6F
100
AcDbEntity
  8
025-DWG
100
AcDbLine
 10
381.070807
 20
1332.080078
 30
0.0
 11
382.405711
 21
1336.292912
 31
0.0
  0
LINE
  5
70
100
AcDbEntity
  8
025-DWG
100
AcDbLine
 10
381.425326
 20
1334.192071
 30
0.0
 11
379.314536
 21
1330.08686
 31
0.0
  0
ARC
  5
71
100
AcDbEntity
  8
035-DWG
100
AcDbCircle
 10
376.4
 20
1338.195918
 30
0.0
 40
6.0
100
AcDbArc
 50
332.788983
 51
0.0
  0
ARC
  5
72
100
AcDbEntity
  8
025-DWG
100
AcDbCircle
 10
376.4
 20
1338.195918
 30
0.0
 40
6.3
100
AcDbArc
 50
342.41836
 51
0.0
  0
LINE
  5
73
100
AcDbEntity
  8
035-DWG
100
AcDbLine
 10
381.735971
 20
1335.452304
 30
0.0
 11
377.564029
 21
1327.338422
 31
0.0
  0
LINE
  5
74
100
AcDbEntity
  8
035-DWG
100
AcDbLine
 10
382.4
 20
1353.049999
 30
0.0
 11
382.4
 21
1338.195918
 31
0.0
  0
LWPOLYLINE
  5
75
100
AcDbEntity
  8
035-DWG
100
AcDbPolyline
 90
        4
 70
     0
 43
0.0
 10
374.138176
 20
1357.101035
 42
0.417384
 10
373.951277
 20
1356.886714
 42
0.026016
 10
374.195012
 20
1354.957347
 42
0.417384
 10
374.42934
 20
1354.79624
  0
LWPOLYLINE
  5
76
100
AcDbEntity
  8
035-DWG
100
AcDbPolyline
 90
        4
 70
     0
 43
0.0
 10
380.005465
 20
1344.567396
 42
0.417384
 10
380.015933
 20
1344.283221
 42
0.026016
 10
381.514352
 20
1343.043622
 42
0.417384
 10
381.795454
 20
1343.086588
  0
LWPOLYLINE
  5
77
100
AcDbEntity
  8
035-DWG
100
AcDbPolyline
 90
        6
 70
     0
 43
0.0
 10
376.586321
 20
1347.935312
 10
377.289413
 20
1348.381507
 42
0.395928
 10
377.357509
 20
1348.646723
 10
376.450725
 20
1350.296156
 42
0.395928
 10
376.190308
 20
1350.380771
 10
375.436838
 20
1350.026214
  0
LWPOLYLINE
  5
78
100
AcDbEntity
  8
035-DWG
100
AcDbPolyline
 90
        4
 70
     0
 43
0.0
 10
375.011796
 20
1352.47106
 42
0.417384
 10
374.884068
 20
1352.216993
 42
0.026016
 10
375.59996
 20
1350.408855
 42
0.417384
 10
375.866992
 20
1350.311084
  0
LWPOLYLINE
  5
79
100
AcDbEntity
  8
035-DWG
100
AcDbPolyline
 90
        4
 70
     0
 43
0.0
 10
377.009398
 20
1348.203804
 42
0.417384
 10
376.948866
 20
1347.925954
 42
0.026016
 10
378.091933
 20
1346.352657
 42
0.417384
 10
378.37489
 20
1346.324366
  0
LWPOLYLINE
  5
7A
100
AcDbEntity
  8
035-DWG
100
AcDbPolyline
 90
        6
 70
     0
 43
0.0
 10
379.662451
 20
1344.202124
 10
380.232489
 20
1344.809153
 42
0.395928
 10
380.232489
 20
1345.082971
 10
378.943997
 20
1346.455076
 42
0.395928
 10
378.670719
 20
1346.472269
 10
378.029094
 20
1345.941472
  0
LWPOLYLINE
  5
7B
100
AcDbEntity
  8
035-DWG
100
AcDbPolyline
 90
        6
 70
     0
 43
0.0
 10
374.53524
 20
1352.316217
 10
375.327207
 20
1352.573543
 42
0.395928
 10
375.45912
 20
1352.813492
 10
374.991022
 20
1354.636613
 42
0.395928
 10
374.759829
 20
1354.783332
 10
373.941856
 20
1354.627295
  0
LWPOLYLINE
  5
7C
100
AcDbEntity
  8
035-DWG
100
AcDbPolyline
 90
        4
 70
     0
 43
0.0
 10
382.4
 20
1343.300257
 10
382.314176
 20
1343.354722
 42
0.395928
 10
382.045207
 20
1343.303414
 10
381.555745
 20
1342.629727
  0
POLYLINE
  5
7D
100
AcDbEntity
  8
035-DWG
100
AcDb2dPolyline
 66
     1
 10
0.0
 20
0.0
 30
0.0
 70
     2
  0
VERTEX
  5
7E
100
AcDbEntity
  8
035-DWG
100
AcDbVertex
100
AcDb2dVertex
 10
382.4
 20
1353.049999
 30
0.0
 42
0.056447
  0
VERTEX
  5
7F
100
AcDbEntity
  8
035-DWG
100
AcDbVertex
100
AcDb2dVertex
 10
382.328058
 20
1355.292982
 30
0.0
 42
0.056447
 70
     1
  0
VERTEX
  5
80
100
AcDbEntity
  8
035-DWG
100
AcDbVertex
100
AcDb2dVertex
 10
381.756314
 20
1357.463064
 30
0.0
 42
0.044824
  0
VERTEX
  5
81
100
AcDbEntity
  8
035-DWG
100
AcDbVertex
100
AcDb2dVertex
 10
380.96428
 20
1359.061785
 30
0.0
 42
0.044824
 70
     1
  0
VERTEX
  5
82
100
AcDbEntity
  8
035-DWG
100
AcDbVertex
100
AcDb2dVertex
 10
379.9
 20
1360.493755
 30
0.0
  0
SEQEND
  5
83
100
AcDbEntity
  8
035-DWG
  0
POLYLINE
  5
84
100
AcDbEntity
  8
035-DWG
100
AcDb2dPolyline
 66
     1
 10
0.0
 20
0.0
 30
0.0
  0
VERTEX
  5
85
100
AcDbEntity
  8
035-DWG
100
AcDbVertex
100
AcDb2dVertex
 10
384.076334
 20
1369.743755
 30
0.0
 42
0.106423
  0
VERTEX
  5
86
100
AcDbEntity
  8
035-DWG
100
AcDbVertex
100
AcDb2dVertex
 10
380.992474
 20
1365.568305
 30
0.0
 42
0.106423
  0
VERTEX
  5
87
100
AcDbEntity
  8
035-DWG
100
AcDbVertex
100
AcDb2dVertex
 10
379.9
 20
1360.493755
 30
0.0
 42
0.106423
  0
VERTEX
  5
88
100
AcDbEntity
  8
035-DWG
100
AcDbVertex
100
AcDb2dVertex
 10
380.992474
 20
1355.419204
 30
0.0
 42
0.056042
  0
VERTEX
  5
89
100
AcDbEntity
  8
035-DWG
100
AcDbVertex
100
AcDb2dVertex
 10
382.4
 20
1353.049999
 30
0.0
  0
SEQEND
  5
8A
100
AcDbEntity
  8
035-DWG
  0
LWPOLYLINE
  5
8B
100
AcDbEntity
  8
035-DWG
100
AcDbPolyline
 90
        6
 70
     0
 43
0.0
 10
373.638084
 20
1357.069572
 10
374.469164
 20
1357.121859
 42
0.395928
 10
374.656606
 20
1357.321464
 10
374.656606
 20
1359.203719
 42
0.395928
 10
374.469164
 20
1359.403325
 10
373.638084
 20
1359.455612
  0
LINE
  5
8C
100
AcDbEntity
  8
025-DWG
100
AcDbLine
 10
406.705342
 20
1325.843533
 30
0.0
 11
405.719807
 21
1328.95379
 31
0.0
  0
LINE
  5
8D
100
AcDbEntity
  8
025-DWG
100
AcDbLine
 10
407.360312
 20
1328.385394
 30
0.0
 11
407.969172
 21
1327.201241
 31
0.0
  0
ARC
  5
8E
100
AcDbEntity
  8
035-DWG
100
AcDbCircle
 10
402.9
 20
1324.594808
 30
0.0
 40
6.0
100
AcDbArc
 50
301.756864
 51
27.211017
  0
LINE
  5
8F
100
AcDbEntity
  8
035-DWG
100
AcDbLine
 10
406.991328
 20
1325.934152
 30
0.0
 11
403.680275
 21
1336.383531
 31
0.0
  0
ARC
  5
90
100
AcDbEntity
  8
025-DWG
100
AcDbCircle
 10
404.047598
 20
1325.355835
 30
0.0
 40
2.7
100
AcDbArc
 50
301.756864
 51
11.114617
  0
ARC
  5
91
100
AcDbEntity
  8
035-DWG
100
AcDbCircle
 10
404.047598
 20
1325.355835
 30
0.0
 40
3.0
100
AcDbArc
 50
301.756864
 51
11.114617
  0
ARC
  5
92
100
AcDbEntity
  8
025-DWG
100
AcDbCircle
 10
392.9
 20
1340.750303
 30
0.0
 40
24.7
100
AcDbArc
 50
301.135177
 51
301.756864
  0
ARC
  5
93
100
AcDbEntity
  8
025-DWG
100
AcDbCircle
 10
402.9
 20
1324.594808
 30
0.0
 40
5.7
100
AcDbArc
 50
301.756864
 51
27.211017
  0
ARC
  5
94
100
AcDbEntity
  8
025-DWG
100
AcDbCircle
 10
392.9
 20
1340.750303
 30
0.0
 40
21.7
100
AcDbArc
 50
270.0
 51
284.434816
  0
ARC
  5
95
100
AcDbEntity
  8
025-DWG
100
AcDbCircle
 10
392.9
 20
1340.750303
 30
0.0
 40
24.7
100
AcDbArc
 50
270.0
 51
292.514835
  0
ARC
  5
96
100
AcDbEntity
  8
035-DWG
100
AcDbCircle
 10
392.9
 20
1340.750303
 30
0.0
 40
22.0
100
AcDbArc
 50
270.0
 51
305.343658
  0
ARC
  5
97
100
AcDbEntity
  8
035-DWG
100
AcDbCircle
 10
392.9
 20
1340.750303
 30
0.0
 40
25.0
100
AcDbArc
 50
270.0
 51
301.756864
  0
ARC
  5
98
100
AcDbEntity
  8
025-DWG
100
AcDbCircle
 10
392.9
 20
1340.750303
 30
0.0
 40
21.7
100
AcDbArc
 50
297.23149
 51
305.343658
  0
POLYLINE
  5
99
100
AcDbEntity
  8
025-DWG
100
AcDb2dPolyline
 66
     1
 10
0.0
 20
0.0
 30
0.0
  0
VERTEX
  5
9A
100
AcDbEntity
  8
025-DWG
100
AcDbVertex
100
AcDb2dVertex
 10
404.260301
 20
1358.65789
 30
0.0
 42
-0.015711
  0
VERTEX
  5
9B
100
AcDbEntity
  8
025-DWG
100
AcDbVertex
100
AcDb2dVertex
 10
404.579894
 20
1359.21848
 30
0.0
 42
-0.044824
  0
VERTEX
  5
9C
100
AcDbEntity
  8
025-DWG
100
AcDbVertex
100
AcDb2dVertex
 10
405.676196
 20
1360.693534
 30
0.0
 42
-0.044824
  0
SEQEND
  5
9D
100
AcDbEntity
  8
025-DWG
  0
LWPOLYLINE
  5
9E
100
AcDbEntity
  8
035-DWG
100
AcDbPolyline
 90
        4
 70
     0
 43
0.0
 10
409.923639
 20
1366.212916
 42
0.417384
 10
410.018518
 20
1366.480989
 42
0.026016
 10
409.08165
 20
1368.185144
 42
0.417384
 10
408.804471
 20
1368.248676
  0
LWPOLYLINE
  5
9F
100
AcDbEntity
  8
035-DWG
100
AcDbPolyline
 90
        6
 70
     0
 43
0.0
 10
407.79305
 20
1370.515559
 10
407.151426
 20
1369.984761
 42
0.395928
 10
407.117107
 20
1369.713101
 10
408.223469
 20
1368.190325
 42
0.395928
 10
408.492438
 20
1368.139017
 10
409.195529
 20
1368.585212
  0
LWPOLYLINE
  5
A0
100
AcDbEntity
  8
035-DWG
100
AcDbPolyline
 90
        4
 70
     0
 43
0.0
 10
407.40696
 20
1370.196157
 42
0.417384
 10
407.432191
 20
1370.479403
 42
0.026016
 10
406.100951
 20
1371.89703
 42
0.417384
 10
405.81668
 20
1371.889634
  0
LWPOLYLINE
  5
A1
100
AcDbEntity
  8
035-DWG
100
AcDbPolyline
 90
        4
 70
     0
 43
0.0
 10
411.37066
 20
1361.728944
 42
0.417384
 10
411.529225
 20
1361.964999
 42
0.026016
 10
411.045597
 20
1363.848604
 42
0.417384
 10
410.792925
 20
1363.979072
  0
LWPOLYLINE
  5
A2
100
AcDbEntity
  8
035-DWG
100
AcDbPolyline
 90
        6
 70
     0
 43
0.0
 10
411.862866
 20
1361.822837
 10
411.044893
 20
1361.6668
 42
0.395928
 10
410.883946
 20
1361.445276
 10
411.119855
 20
1359.577863
 42
0.395928
 10
411.330836
 20
1359.403325
 10
412.161916
 20
1359.455612
  0
LWPOLYLINE
  5
A3
100
AcDbEntity
  8
035-DWG
100
AcDbPolyline
 90
        6
 70
     0
 43
0.0
 10
410.377031
 20
1366.426266
 10
409.623561
 20
1366.07171
 42
0.395928
 10
409.522761
 20
1365.81712
 10
410.215665
 20
1364.067044
 42
0.395928
 10
410.463424
 20
1363.950457
 10
411.255391
 20
1364.207783
  0
LINE
  5
A4
100
AcDbEntity
  8
035-DWG
100
AcDbLine
 10
401.723666
 20
1369.743755
 30
0.0
 11
392.9
 21
1369.743755
 31
0.0
  0
POLYLINE
  5
A5
100
AcDbEntity
  8
DIM-LINE
100
AcDb2dPolyline
 66
     1
 10
0.0
 20
0.0
 30
0.0
  0
VERTEX
  5
A6
100
AcDbEntity
  8
DIM-LINE
100
AcDbVertex
100
AcDb2dVertex
 10
395.150036
 20
1363.745209
 30
0.0
 42
-0.00529
  0
VERTEX
  5
A7
100
AcDbEntity
  8
DIM-LINE
100
AcDbVertex
100
AcDb2dVertex
 10
395.308782
 20
1364.921386
 30
0.0
 42
-0.018284
  0
VERTEX
  5
A8
100
AcDbEntity
  8
DIM-LINE
100
AcDbVertex
100
AcDb2dVertex
 10
396.04821
 20
1368.955038
 30
0.0
  0
SEQEND
  5
A9
100
AcDbEntity
  8
DIM-LINE
  0
POLYLINE
  5
AA
100
AcDbEntity
  8
DIM-LINE
100
AcDb2dPolyline
 66
     1
 10
0.0
 20
0.0
 30
0.0
  0
VERTEX
  5
AB
100
AcDbEntity
  8
DIM-LINE
100
AcDbVertex
100
AcDb2dVertex
 10
400.921069
 20
1363.441938
 30
0.0
 42
-0.059449
  0
VERTEX
  5
AC
100
AcDbEntity
  8
DIM-LINE
100
AcDbVertex
100
AcDb2dVertex
 10
401.808224
 20
1364.191821
 30
0.0
 42
-0.05982
  0
VERTEX
  5
AD
100
AcDbEntity
  8
DIM-LINE
100
AcDbVertex
100
AcDb2dVertex
 10
404.238922
 20
1365.406674
 30
0.0
  0
SEQEND
  5
AE
100
AcDbEntity
  8
DIM-LINE
  0
LINE
  5
AF
100
AcDbEntity
  8
025-DWG
100
AcDbLine
 10
404.374674
 20
1334.192071
 30
0.0
 11
406.258334
 21
1330.528599
 31
0.0
  0
LINE
  5
B0
100
AcDbEntity
  8
035-DWG
100
AcDbLine
 10
404.064029
 20
1335.452304
 30
0.0
 11
408.235971
 21
1327.338422
 31
0.0
  0
LWPOLYLINE
  5
B1
100
AcDbEntity
  8
035-DWG
100
AcDbPolyline
 90
        6
 70
     0
 43
0.0
 10
412.157194
 20
1356.99452
 10
411.326114
 20
1357.046808
 42
0.395928
 10
411.115133
 20
1356.872269
 10
410.879224
 20
1355.004856
 42
0.395928
 10
411.040171
 20
1354.783332
 10
411.858144
 20
1354.627295
  0
LWPOLYLINE
  5
B2
100
AcDbEntity
  8
035-DWG
100
AcDbPolyline
 90
        6
 70
     0
 43
0.0
 10
411.241522
 20
1352.244698
 10
410.449555
 20
1352.502024
 42
0.395928
 10
410.201797
 20
1352.385437
 10
409.508892
 20
1350.635361
 42
0.395928
 10
409.609692
 20
1350.380771
 10
410.363162
 20
1350.026214
  0
LWPOLYLINE
  5
B3
100
AcDbEntity
  8
035-DWG
100
AcDbPolyline
 90
        4
 70
     0
 43
0.0
 10
408.750308
 20
1348.140311
 42
0.417384
 10
409.027487
 20
1348.203843
 42
0.026016
 10
409.964355
 20
1349.907998
 42
0.417384
 10
409.869476
 20
1350.176071
  0
LWPOLYLINE
  5
B4
100
AcDbEntity
  8
035-DWG
100
AcDbPolyline
 90
        4
 70
     0
 43
0.0
 10
405.739717
 20
1344.515918
 42
0.417384
 10
406.023988
 20
1344.508522
 42
0.026016
 10
407.355228
 20
1345.926149
 42
0.417384
 10
407.329998
 20
1346.209395
  0
LWPOLYLINE
  5
B5
100
AcDbEntity
  8
035-DWG
100
AcDbPolyline
 90
        6
 70
     0
 43
0.0
 10
409.173385
 20
1347.871818
 10
408.470293
 20
1348.318014
 42
0.395928
 10
408.201324
 20
1348.266705
 10
407.094963
 20
1346.743929
 42
0.395928
 10
407.129281
 20
1346.472269
 10
407.770906
 20
1345.941472
  0
LWPOLYLINE
  5
B6
100
AcDbEntity
  8
035-DWG
100
AcDbPolyline
 90
        4
 70
     0
 43
0.0
 10
410.764965
 20
1352.399541
 42
0.417384
 10
411.017637
 20
1352.530008
 42
0.026016
 10
411.501265
 20
1354.413614
 42
0.417384
 10
411.3427
 20
1354.649669
  0
LINE
  5
B7
100
AcDbEntity
  8
025-DWG
100
AcDbLine
 10
403.1
 20
1353.049999
 30
0.0
 11
403.1
 21
1346.512986
 31
0.0
  0
POLYLINE
  5
B8
100
AcDbEntity
  8
025-DWG
100
AcDb2dPolyline
 66
     1
 10
0.0
 20
0.0
 30
0.0
  0
VERTEX
  5
B9
100
AcDbEntity
  8
025-DWG
100
AcDbVertex
100
AcDb2dVertex
 10
403.100977
 20
1353.025812
 30
0.0
 42
-0.056447
  0
VERTEX
  5
BA
100
AcDbEntity
  8
025-DWG
100
AcDbVertex
100
AcDb2dVertex
 10
403.175084
 20
1355.336281
 30
0.0
 42
-0.024827
  0
VERTEX
  5
BB
100
AcDbEntity
  8
025-DWG
100
AcDbVertex
100
AcDb2dVertex
 10
403.372079
 20
1356.336406
 30
0.0
 42
-0.044824
  0
SEQEND
  5
BC
100
AcDbEntity
  8
025-DWG
  0
LINE
  5
BD
100
AcDbEntity
  8
025-DWG
100
AcDbLine
 10
403.1
 20
1340.592628
 30
0.0
 11
403.1
 21
1338.195918
 31
0.0
  0
ARC
  5
BE
100
AcDbEntity
  8
DIM-LINE
100
AcDbCircle
 10
392.9
 20
1349.15684
 30
0.0
 40
18.0
100
AcDbArc
 50
290.549002
 51
299.508121
  0
ARC
  5
BF
100
AcDbEntity
  8
025-DWG
100
AcDbCircle
 10
409.4
 20
1338.195918
 30
0.0
 40
6.3
100
AcDbArc
 50
180.0
 51
197.58164
  0
LINE
  5
C0
100
AcDbEntity
  8
035-DWG
100
AcDbLine
 10
403.4
 20
1353.049999
 30
0.0
 11
403.4
 21
1338.195918
 31
0.0
  0
POLYLINE
  5
C1
100
AcDbEntity
  8
DIM-LINE
100
AcDb2dPolyline
 66
     1
 10
0.0
 20
0.0
 30
0.0
  0
VERTEX
  5
C2
100
AcDbEntity
  8
DIM-LINE
100
AcDbVertex
100
AcDb2dVertex
 10
398.770219
 20
1350.54692
 30
0.0
 42
-0.068389
  0
VERTEX
  5
C3
100
AcDbEntity
  8
DIM-LINE
100
AcDbVertex
100
AcDb2dVertex
 10
396.5654
 20
1349.771986
 30
0.0
 42
-0.038125
  0
VERTEX
  5
C4
100
AcDbEntity
  8
DIM-LINE
100
AcDbVertex
100
AcDb2dVertex
 10
395.268609
 20
1349.608764
 30
0.0
  0
SEQEND
  5
C5
100
AcDbEntity
  8
DIM-LINE
  0
LINE
  5
C6
100
AcDbEntity
  8
025-DWG
100
AcDbLine
 10
404.729193
 20
1332.080078
 30
0.0
 11
403.394289
 21
1336.292912
 31
0.0
  0
ARC
  5
C7
100
AcDbEntity
  8
035-DWG
100
AcDbCircle
 10
409.4
 20
1338.195918
 30
0.0
 40
6.0
100
AcDbArc
 50
180.0
 51
207.211017
  0
LWPOLYLINE
  5
C8
100
AcDbEntity
  8
035-DWG
100
AcDbPolyline
 90
        6
 70
     0
 43
0.0
 10
406.082731
 20
1344.150646
 10
405.512692
 20
1344.757675
 42
0.395928
 10
405.239414
 20
1344.774868
 10
403.789112
 20
1343.575073
 42
0.395928
 10
403.754793
 20
1343.303414
 10
404.244255
 20
1342.629727
  0
LWPOLYLINE
  5
C9
100
AcDbEntity
  8
035-DWG
100
AcDbPolyline
 90
        3
 70
     0
 43
0.0
 10
403.4
 20
1342.416607
 42
0.007108
 10
403.837827
 20
1342.71826
 42
0.417384
 10
403.883829
 20
1342.998882
  0
POLYLINE
  5
CA
100
AcDbEntity
  8
DIM-LINE
100
AcDb2dPolyline
 66
     1
 10
0.0
 20
0.0
 30
0.0
  0
VERTEX
  5
CB
100
AcDbEntity
  8
DIM-LINE
100
AcDbVertex
100
AcDb2dVertex
 10
390.933955
 20
1352.818422
 30
0.0
 42
0.017904
  0
VERTEX
  5
CC
100
AcDbEntity
  8
DIM-LINE
100
AcDbVertex
100
AcDb2dVertex
 10
391.077699
 20
1356.831455
 30
0.0
 42
0.004335
  0
VERTEX
  5
CD
100
AcDbEntity
  8
DIM-LINE
100
AcDbVertex
100
AcDb2dVertex
 10
391.069268
 20
1357.803914
 30
0.0
 42
0.018284
  0
SEQEND
  5
CE
100
AcDbEntity
  8
DIM-LINE
  0
POLYLINE
  5
CF
100
AcDbEntity
  8
DIM-LINE
100
AcDb2dPolyline
 66
     1
 10
0.0
 20
0.0
 30
0.0
  0
VERTEX
  5
D0
100
AcDbEntity
  8
DIM-LINE
100
AcDbVertex
100
AcDb2dVertex
 10
394.866045
 20
1352.818422
 30
0.0
 42
-0.017904
  0
VERTEX
  5
D1
100
AcDbEntity
  8
DIM-LINE
100
AcDbVertex
100
AcDb2dVertex
 10
394.722301
 20
1356.831455
 30
0.0
 42
-0.004335
  0
VERTEX
  5
D2
100
AcDbEntity
  8
DIM-LINE
100
AcDbVertex
100
AcDb2dVertex
 10
394.730732
 20
1357.803914
 30
0.0
 42
-0.018284
  0
SEQEND
  5
D3
100
AcDbEntity
  8
DIM-LINE
  0
POLYLINE
  5
D4
100
AcDbEntity
  8
035-DWG
100
AcDb2dPolyline
 66
     1
 10
0.0
 20
0.0
 30
0.0
 70
     2
  0
VERTEX
  5
D5
100
AcDbEntity
  8
035-DWG
100
AcDbVertex
100
AcDb2dVertex
 10
403.4
 20
1353.049999
 30
0.0
 42
-0.056447
  0
VERTEX
  5
D6
100
AcDbEntity
  8
035-DWG
100
AcDbVertex
100
AcDb2dVertex
 10
403.471942
 20
1355.292982
 30
0.0
 42
-0.056447
 70
     1
  0
VERTEX
  5
D7
100
AcDbEntity
  8
035-DWG
100
AcDbVertex
100
AcDb2dVertex
 10
404.043686
 20
1357.463064
 30
0.0
 42
-0.044824
  0
VERTEX
  5
D8
100
AcDbEntity
  8
035-DWG
100
AcDbVertex
100
AcDb2dVertex
 10
404.83572
 20
1359.061785
 30
0.0
 42
-0.044824
 70
     1
  0
VERTEX
  5
D9
100
AcDbEntity
  8
035-DWG
100
AcDbVertex
100
AcDb2dVertex
 10
405.9
 20
1360.493755
 30
0.0
  0
SEQEND
  5
DA
100
AcDbEntity
  8
035-DWG
  0
POLYLINE
  5
DB
100
AcDbEntity
  8
035-DWG
100
AcDb2dPolyline
 66
     1
 10
0.0
 20
0.0
 30
0.0
  0
VERTEX
  5
DC
100
AcDbEntity
  8
035-DWG
100
AcDbVertex
100
AcDb2dVertex
 10
401.723666
 20
1369.743755
 30
0.0
 42
-0.106423
  0
VERTEX
  5
DD
100
AcDbEntity
  8
035-DWG
100
AcDbVertex
100
AcDb2dVertex
 10
404.807526
 20
1365.568305
 30
0.0
 42
-0.106423
  0
VERTEX
  5
DE
100
AcDbEntity
  8
035-DWG
100
AcDbVertex
100
AcDb2dVertex
 10
405.9
 20
1360.493755
 30
0.0
 42
-0.106423
  0
VERTEX
  5
DF
100
AcDbEntity
  8
035-DWG
100
AcDbVertex
100
AcDb2dVertex
 10
404.807526
 20
1355.419204
 30
0.0
 42
-0.056042
  0
VERTEX
  5
E0
100
AcDbEntity
  8
035-DWG
100
AcDbVertex
100
AcDb2dVertex
 10
403.4
 20
1353.049999
 30
0.0
  0
SEQEND
  5
E1
100
AcDbEntity
  8
035-DWG
  0
POLYLINE
  5
E2
100
AcDbEntity
  8
DIM-LINE
100
AcDb2dPolyline
 66
     1
 10
0.0
 20
0.0
 30
0.0
  0
VERTEX
  5
E3
100
AcDbEntity
  8
DIM-LINE
100
AcDbVertex
100
AcDb2dVertex
 10
397.230374
 20
1352.902906
 30
0.0
 42
-0.047166
  0
VERTEX
  5
E4
100
AcDbEntity
  8
DIM-LINE
100
AcDbVertex
100
AcDb2dVertex
 10
397.525514
 20
1356.396609
 30
0.0
 42
-0.061097
  0
VERTEX
  5
E5
100
AcDbEntity
  8
DIM-LINE
100
AcDbVertex
100
AcDb2dVertex
 10
398.328099
 20
1358.985821
 30
0.0
 42
-0.01296
  0
VERTEX
  5
E6
100
AcDbEntity
  8
DIM-LINE
100
AcDbVertex
100
AcDb2dVertex
 10
399.05518
 20
1360.496618
 30
0.0
 42
-0.029301
  0
SEQEND
  5
E7
100
AcDbEntity
  8
DIM-LINE
  0
LWPOLYLINE
  5
E8
100
AcDbEntity
  8
035-DWG
100
AcDbPolyline
 90
        4
 70
     0
 43
0.0
 10
411.657102
 20
1357.025984
 42
0.417384
 10
411.869389
 20
1357.215189
 42
0.026016
 10
411.869389
 20
1359.159891
 42
0.417384
 10
411.657102
 20
1359.349097
  0
CIRCLE
  5
E9
100
AcDbEntity
  8
025-DWG
100
AcDbCircle
 10
392.9
 20
1433.543755
 30
0.0
 40
5.0
  0
ARC
  5
EA
100
AcDbEntity
  8
025-DWG
100
AcDbCircle
 10
392.9
 20
1449.943755
 30
0.0
 40
26.0255
100
AcDbArc
 50
220.856972
 51
319.143028
  0
ARC
  5
EB
100
AcDbEntity
  8
025-DWG
100
AcDbCircle
 10
392.9
 20
1449.943755
 30
0.0
 40
25.025843
100
AcDbArc
 50
220.856972
 51
319.143028
  0
POLYLINE
  5
EC
100
AcDbEntity
  8
035-DWG
100
AcDb2dPolyline
 66
     1
 10
0.0
 20
0.0
 30
0.0
 70
     2
  0
VERTEX
  5
ED
100
AcDbEntity
  8
035-DWG
100
AcDbVertex
100
AcDb2dVertex
 10
373.021262
 20
1432.750365
 30
0.0
 42
0.03058
  0
VERTEX
  5
EE
100
AcDbEntity
  8
035-DWG
100
AcDbVertex
100
AcDb2dVertex
 10
375.804303
 20
1429.914287
 30
0.0
 42
0.049321
 70
     1
  0
VERTEX
  5
EF
100
AcDbEntity
  8
035-DWG
100
AcDbVertex
100
AcDb2dVertex
 10
377.79049
 20
1428.450456
 30
0.0
 42
0.011861
  0
VERTEX
  5
F0
100
AcDbEntity
  8
035-DWG
100
AcDbVertex
100
AcDb2dVertex
 10
381.824153
 20
1426.179073
 30
0.0
 42
0.03058
 70
     1
  0
VERTEX
  5
F1
100
AcDbEntity
  8
035-DWG
100
AcDbVertex
100
AcDb2dVertex
 10
383.458951
 20
1425.433296
 30
0.0
 42
0.03058
  0
VERTEX
  5
F2
100
AcDbEntity
  8
035-DWG
100
AcDbVertex
100
AcDb2dVertex
 10
386.526528
 20
1424.465168
 30
0.0
 42
0.03058
 70
     1
  0
VERTEX
  5
F3
100
AcDbEntity
  8
035-DWG
100
AcDbVertex
100
AcDb2dVertex
 10
389.689289
 20
1423.878448
 30
0.0
 42
0.03058
  0
VERTEX
  5
F4
100
AcDbEntity
  8
035-DWG
100
AcDbVertex
100
AcDb2dVertex
 10
392.9
 20
1423.681895
 30
0.0
 42
0.03058
 70
     1
  0
VERTEX
  5
F5
100
AcDbEntity
  8
035-DWG
100
AcDbVertex
100
AcDb2dVertex
 10
396.110711
 20
1423.878448
 30
0.0
 42
0.03058
  0
VERTEX
  5
F6
100
AcDbEntity
  8
035-DWG
100
AcDbVertex
100
AcDb2dVertex
 10
399.273472
 20
1424.465168
 30
0.0
 42
0.03058
 70
     1
  0
VERTEX
  5
F7
100
AcDbEntity
  8
035-DWG
100
AcDbVertex
100
AcDb2dVertex
 10
402.341049
 20
1425.433296
 30
0.0
 42
0.03058
  0
VERTEX
  5
F8
100
AcDbEntity
  8
035-DWG
100
AcDbVertex
100
AcDb2dVertex
 10
403.975847
 20
1426.179073
 30
0.0
 42
0.011861
 70
     1
  0
VERTEX
  5
F9
100
AcDbEntity
  8
035-DWG
100
AcDbVertex
100
AcDb2dVertex
 10
408.00951
 20
1428.450456
 30
0.0
 42
0.049321
  0
VERTEX
  5
FA
100
AcDbEntity
  8
035-DWG
100
AcDbVertex
100
AcDb2dVertex
 10
409.995697
 20
1429.914287
 30
0.0
 42
0.03058
 70
     1
  0
VERTEX
  5
FB
100
AcDbEntity
  8
035-DWG
100
AcDbVertex
100
AcDb2dVertex
 10
412.778738
 20
1432.750365
 30
0.0
  0
SEQEND
  5
FC
100
AcDbEntity
  8
035-DWG
  0
LWPOLYLINE
  5
FD
100
AcDbEntity
  8
035-DWG
100
AcDbPolyline
 90
        4
 70
     0
 43
0.0
 10
390.581471
 20
1376.896804
 42
0.417384
 10
390.355837
 20
1377.069878
 42
0.026016
 10
388.445582
 20
1376.705477
 42
0.417384
 10
388.299506
 20
1376.461496
  0
LWPOLYLINE
  5
FE
100
AcDbEntity
  8
035-DWG
100
AcDbPolyline
 90
        4
 70
     0
 43
0.0
 10
386.015487
 20
1375.734189
 42
0.417384
 10
385.753901
 20
1375.845713
 42
0.026016
 10
383.994282
 20
1375.017699
 42
0.417384
 10
383.913471
 20
1374.745056
  0
LWPOLYLINE
  5
FF
100
AcDbEntity
  8
035-DWG
100
AcDbPolyline
 90
        6
 70
     0
 43
0.0
 10
385.831027
 20
1376.200083
 10
386.137572
 20
1375.425837
 42
0.395928
 10
386.385331
 20
1375.30925
 10
388.175462
 20
1375.890899
 42
0.395928
 10
388.307375
 20
1376.130848
 10
388.100285
 20
1376.93741
  0
LINE
  5
100
100
AcDbEntity
  8
025-DWG
100
AcDbLine
 10
371.862722
 20
1440.424072
 30
0.0
 11
372.619218
 21
1434.262908
 31
0.0
  0
LINE
  5
101
100
AcDbEntity
  8
025-DWG
100
AcDbLine
 10
373.215744
 20
1432.918575
 30
0.0
 11
373.021262
 21
1432.750365
 31
0.0
  0
ARC
  5
102
100
AcDbEntity
  8
025-DWG
100
AcDbCircle
 10
375.125894
 20
1434.570689
 30
0.0
 40
2.5255
100
AcDbArc
 50
187.0
 51
220.856972
  0
LINE
  5
103
100
AcDbEntity
  8
025-DWG
100
AcDbLine
 10
373.611424
 20
1434.384736
 30
0.0
 11
372.619218
 21
1434.262908
 31
0.0
  0
ARC
  5
104
100
AcDbEntity
  8
025-DWG
100
AcDbCircle
 10
375.125894
 20
1434.570689
 30
0.0
 40
1.525843
100
AcDbArc
 50
187.0
 51
220.856972
  0
LINE
  5
105
100
AcDbEntity
  8
025-DWG
100
AcDbLine
 10
373.97183
 20
1433.572524
 30
0.0
 11
373.215744
 21
1432.918575
 31
0.0
  0
LWPOLYLINE
  5
106
100
AcDbEntity
  8
035-DWG
100
AcDbPolyline
 90
        3
 70
     0
 43
0.0
 10
372.360633
 20
1434.231158
 10
372.58087
 20
1433.441652
 10
373.021262
 20
1432.750365
  0
LINE
  5
107
100
AcDbEntity
  8
025-DWG
100
AcDbLine
 10
372.619218
 20
1434.262908
 30
0.0
 11
372.360633
 21
1434.231158
 31
0.0
  0
LINE
  5
108
100
AcDbEntity
  8
035-DWG
100
AcDbLine
 10
372.276948
 20
1434.900139
 30
0.0
 11
372.360633
 21
1434.231158
 31
0.0
  0
LINE
  5
109
100
AcDbEntity
  8
025-DWG
100
AcDbLine
 10
373.611424
 20
1434.384736
 30
0.0
 11
372.883294
 21
1440.314878
 31
0.0
  0
LWPOLYLINE
  5
10A
100
AcDbEntity
  8
025-DWG
100
AcDbPolyline
 90
        3
 70
     0
 43
0.0
 10
371.955605
 20
1437.455834
 10
372.126673
 20
1437.550611
 10
372.179684
 20
1437.735225
  0
LWPOLYLINE
  5
10B
100
AcDbEntity
  8
035-DWG
100
AcDbPolyline
 90
        6
 70
     0
 43
0.0
 10
371.647009
 20
1437.921698
 10
371.798796
 20
1437.892231
 10
371.904458
 20
1437.779266
 10
371.923637
 20
1437.625952
 10
371.849006
 20
1437.490849
 10
371.709072
 20
1437.425563
  0
LINE
  5
10C
100
AcDbEntity
  8
025-DWG
100
AcDbLine
 10
371.650931
 20
1439.937199
 30
0.0
 11
371.398758
 21
1439.906236
 31
0.0
  0
LINE
  5
10D
100
AcDbEntity
  8
025-DWG
100
AcDbLine
 10
371.772801
 20
1438.944653
 30
0.0
 11
371.522884
 21
1438.913967
 31
0.0
  0
LINE
  5
10E
100
AcDbEntity
  8
025-DWG
100
AcDbLine
 10
371.711866
 20
1439.440926
 30
0.0
 11
371.460821
 21
1439.410102
 31
0.0
  0
LINE
  5
10F
100
AcDbEntity
  8
025-DWG
100
AcDbLine
 10
371.89467
 20
1437.952107
 30
0.0
 11
371.647009
 21
1437.921698
 31
0.0
  0
LINE
  5
110
100
AcDbEntity
  8
025-DWG
100
AcDbLine
 10
371.833735
 20
1438.44838
 30
0.0
 11
371.584947
 21
1438.417832
 31
0.0
  0
LWPOLYLINE
  5
111
100
AcDbEntity
  8
025-DWG
100
AcDbPolyline
 90
        7
 70
     0
 43
0.0
 10
371.650931
 20
1439.937199
 10
371.519576
 20
1439.954816
 10
371.415253
 20
1440.0342
 10
371.365917
 20
1440.154081
 10
371.384786
 20
1440.282337
 10
371.466805
 20
1440.384601
 10
371.589997
 20
1440.433472
  0
LWPOLYLINE
  5
112
100
AcDbEntity
  8
025-DWG
100
AcDbPolyline
 90
        4
 70
     0
 43
0.0
 10
371.935945
 20
1439.720317
 10
371.886609
 20
1439.840198
 10
371.782287
 20
1439.919582
 10
371.650931
 20
1439.937199
  0
LWPOLYLINE
  5
113
100
AcDbEntity
  8
025-DWG
100
AcDbPolyline
 90
        7
 70
     0
 43
0.0
 10
371.772801
 20
1438.944653
 10
371.641445
 20
1438.96227
 10
371.537123
 20
1439.041654
 10
371.487786
 20
1439.161535
 10
371.506655
 20
1439.289791
 10
371.588674
 20
1439.392055
 10
371.711866
 20
1439.440926
  0
LWPOLYLINE
  5
114
100
AcDbEntity
  8
025-DWG
100
AcDbPolyline
 90
        3
 70
     0
 43
0.0
 10
371.711866
 20
1439.440926
 10
371.882934
 20
1439.535704
 10
371.935945
 20
1439.720317
  0
LWPOLYLINE
  5
115
100
AcDbEntity
  8
025-DWG
100
AcDbPolyline
 90
        3
 70
     0
 43
0.0
 10
372.057815
 20
1438.727771
 10
371.961716
 20
1438.894076
 10
371.772801
 20
1438.944653
  0
LWPOLYLINE
  5
116
100
AcDbEntity
  8
025-DWG
100
AcDbPolyline
 90
        6
 70
     0
 43
0.0
 10
371.89467
 20
1437.952107
 10
371.739232
 20
1437.981126
 10
371.631529
 20
1438.09384
 10
371.612699
 20
1438.247197
 10
371.689935
 20
1438.382619
 10
371.833735
 20
1438.44838
  0
LWPOLYLINE
  5
117
100
AcDbEntity
  8
025-DWG
100
AcDbPolyline
 90
        4
 70
     0
 43
0.0
 10
371.833735
 20
1438.44838
 10
371.956927
 20
1438.497251
 10
372.038946
 20
1438.599515
 10
372.057815
 20
1438.727771
  0
LWPOLYLINE
  5
118
100
AcDbEntity
  8
025-DWG
100
AcDbPolyline
 90
        3
 70
     0
 43
0.0
 10
372.179684
 20
1437.735225
 10
372.083585
 20
1437.901529
 10
371.89467
 20
1437.952107
  0
LWPOLYLINE
  5
119
100
AcDbEntity
  8
035-DWG
100
AcDbPolyline
 90
        7
 70
     0
 43
0.0
 10
371.336695
 20
1440.402371
 10
371.216776
 20
1440.353901
 10
371.137305
 20
1440.25195
 10
371.119574
 20
1440.123834
 10
371.168336
 20
1440.003883
 10
371.270524
 20
1439.924236
 10
371.398758
 20
1439.906236
  0
LWPOLYLINE
  5
11A
100
AcDbEntity
  8
035-DWG
100
AcDbPolyline
 90
        6
 70
     0
 43
0.0
 10
371.398758
 20
1439.906236
 10
371.550545
 20
1439.876769
 10
371.656207
 20
1439.763804
 10
371.675386
 20
1439.61049
 10
371.600755
 20
1439.475388
 10
371.460821
 20
1439.410102
  0
LWPOLYLINE
  5
11B
100
AcDbEntity
  8
035-DWG
100
AcDbPolyline
 90
        7
 70
     0
 43
0.0
 10
371.460821
 20
1439.410102
 10
371.340902
 20
1439.361632
 10
371.26143
 20
1439.259681
 10
371.2437
 20
1439.131565
 10
371.292462
 20
1439.011613
 10
371.39465
 20
1438.931967
 10
371.522884
 20
1438.913967
  0
LWPOLYLINE
  5
11C
100
AcDbEntity
  8
035-DWG
100
AcDbPolyline
 90
        6
 70
     0
 43
0.0
 10
371.522884
 20
1438.913967
 10
371.67467
 20
1438.8845
 10
371.780333
 20
1438.771535
 10
371.799511
 20
1438.618221
 10
371.72488
 20
1438.483118
 10
371.584947
 20
1438.417832
  0
LWPOLYLINE
  5
11D
100
AcDbEntity
  8
035-DWG
100
AcDbPolyline
 90
        6
 70
     0
 43
0.0
 10
371.584947
 20
1438.417832
 10
371.445013
 20
1438.352546
 10
371.370382
 20
1438.217444
 10
371.38956
 20
1438.06413
 10
371.495223
 20
1437.951165
 10
371.647009
 20
1437.921698
  0
LINE
  5
11E
100
AcDbEntity
  8
025-DWG
100
AcDbLine
 10
372.016539
 20
1436.959561
 30
0.0
 11
371.771135
 21
1436.929429
 31
0.0
  0
LINE
  5
11F
100
AcDbEntity
  8
025-DWG
100
AcDbLine
 10
371.955605
 20
1437.455834
 30
0.0
 11
371.709072
 21
1437.425563
 31
0.0
  0
LINE
  5
120
100
AcDbEntity
  8
025-DWG
100
AcDbLine
 10
372.138409
 20
1435.967014
 30
0.0
 11
371.895261
 21
1435.93716
 31
0.0
  0
LINE
  5
121
100
AcDbEntity
  8
025-DWG
100
AcDbLine
 10
372.077474
 20
1436.463288
 30
0.0
 11
371.833198
 21
1436.433294
 31
0.0
  0
LINE
  5
122
100
AcDbEntity
  8
025-DWG
100
AcDbLine
 10
372.193358
 20
1434.974834
 30
0.0
 11
371.954102
 21
1434.945457
 31
0.0
  0
LINE
  5
123
100
AcDbEntity
  8
025-DWG
100
AcDbLine
 10
372.199343
 20
1435.470741
 30
0.0
 11
371.957324
 21
1435.441025
 31
0.0
  0
LWPOLYLINE
  5
124
100
AcDbEntity
  8
025-DWG
100
AcDbPolyline
 90
        6
 70
     0
 43
0.0
 10
372.193358
 20
1434.974834
 10
372.061032
 20
1435.033342
 10
371.983164
 20
1435.152918
 10
371.984878
 20
1435.294979
 10
372.065622
 20
1435.413687
 10
372.199343
 20
1435.470741
  0
LWPOLYLINE
  5
125
100
AcDbEntity
  8
025-DWG
100
AcDbPolyline
 90
        3
 70
     0
 43
0.0
 10
372.199343
 20
1435.470741
 10
372.370411
 20
1435.565519
 10
372.423423
 20
1435.750132
  0
LINE
  5
126
100
AcDbEntity
  8
025-DWG
100
AcDbLine
 10
372.524063
 20
1434.930481
 30
0.0
 11
372.193358
 21
1434.974834
 31
0.0
  0
LWPOLYLINE
  5
127
100
AcDbEntity
  8
025-DWG
100
AcDbPolyline
 90
        6
 70
     0
 43
0.0
 10
372.016539
 20
1436.959561
 10
371.861102
 20
1436.98858
 10
371.753398
 20
1437.101294
 10
371.734568
 20
1437.254651
 10
371.811804
 20
1437.390073
 10
371.955605
 20
1437.455834
  0
LWPOLYLINE
  5
128
100
AcDbEntity
  8
025-DWG
100
AcDbPolyline
 90
        3
 70
     0
 43
0.0
 10
372.301554
 20
1436.742678
 10
372.205455
 20
1436.908983
 10
372.016539
 20
1436.959561
  0
LWPOLYLINE
  5
129
100
AcDbEntity
  8
025-DWG
100
AcDbPolyline
 90
        6
 70
     0
 43
0.0
 10
372.138409
 20
1435.967014
 10
371.982971
 20
1435.996033
 10
371.875268
 20
1436.108748
 10
371.856438
 20
1436.262105
 10
371.933674
 20
1436.397527
 10
372.077474
 20
1436.463288
  0
LWPOLYLINE
  5
12A
100
AcDbEntity
  8
025-DWG
100
AcDbPolyline
 90
        3
 70
     0
 43
0.0
 10
372.077474
 20
1436.463288
 10
372.248542
 20
1436.558065
 10
372.301554
 20
1436.742678
  0
LWPOLYLINE
  5
12B
100
AcDbEntity
  8
025-DWG
100
AcDbPolyline
 90
        4
 70
     0
 43
0.0
 10
372.423423
 20
1435.750132
 10
372.374086
 20
1435.870013
 10
372.269764
 20
1435.949398
 10
372.138409
 20
1435.967014
  0
LWPOLYLINE
  5
12C
100
AcDbEntity
  8
035-DWG
100
AcDbPolyline
 90
        7
 70
     0
 43
0.0
 10
371.709072
 20
1437.425563
 10
371.589153
 20
1437.377094
 10
371.509682
 20
1437.275142
 10
371.491951
 20
1437.147027
 10
371.540713
 20
1437.027075
 10
371.642901
 20
1436.947429
 10
371.771135
 20
1436.929429
  0
LWPOLYLINE
  5
12D
100
AcDbEntity
  8
035-DWG
100
AcDbPolyline
 90
        6
 70
     0
 43
0.0
 10
371.771135
 20
1436.929429
 10
371.922922
 20
1436.899961
 10
372.028584
 20
1436.786996
 10
372.047763
 20
1436.633682
 10
371.973132
 20
1436.49858
 10
371.833198
 20
1436.433294
  0
LWPOLYLINE
  5
12E
100
AcDbEntity
  8
035-DWG
100
AcDbPolyline
 90
        6
 70
     0
 43
0.0
 10
371.833198
 20
1436.433294
 10
371.693264
 20
1436.368008
 10
371.618633
 20
1436.232906
 10
371.637812
 20
1436.079592
 10
371.743474
 20
1435.966627
 10
371.895261
 20
1435.93716
  0
LWPOLYLINE
  5
12F
100
AcDbEntity
  8
035-DWG
100
AcDbPolyline
 90
        6
 70
     0
 43
0.0
 10
371.895261
 20
1435.93716
 10
372.047047
 20
1435.907692
 10
372.15271
 20
1435.794727
 10
372.171888
 20
1435.641413
 10
372.097257
 20
1435.506311
 10
371.957324
 20
1435.441025
  0
LWPOLYLINE
  5
130
100
AcDbEntity
  8
035-DWG
100
AcDbPolyline
 90
        6
 70
     0
 43
0.0
 10
371.957324
 20
1435.441025
 10
371.827176
 20
1435.38441
 10
371.749035
 20
1435.266021
 10
371.748112
 20
1435.124057
 10
371.824706
 20
1435.004325
 10
371.954102
 20
1434.945457
  0
LINE
  5
131
100
AcDbEntity
  8
035-DWG
100
AcDbLine
 10
371.954102
 20
1434.945457
 30
0.0
 11
372.276948
 21
1434.900139
 31
0.0
  0
LINE
  5
132
100
AcDbEntity
  8
025-DWG
100
AcDbLine
 10
372.524063
 20
1434.930481
 30
0.0
 11
372.276948
 21
1434.900139
 31
0.0
  0
LWPOLYLINE
  5
133
100
AcDbEntity
  8
035-DWG
100
AcDbPolyline
 90
        4
 70
     0
 43
0.0
 10
395.293136
 20
1376.887379
 42
0.417384
 10
395.117633
 20
1377.111128
 42
0.026016
 10
393.176769
 20
1377.233237
 42
0.417384
 10
392.974607
 20
1377.033249
  0
LWPOLYLINE
  5
134
100
AcDbEntity
  8
035-DWG
100
AcDbPolyline
 90
        6
 70
     0
 43
0.0
 10
390.518669
 20
1377.393934
 10
390.623036
 20
1376.567777
 42
0.395928
 10
390.834017
 20
1376.393239
 10
392.712558
 20
1376.511426
 42
0.395928
 10
392.9
 20
1376.711032
 10
392.9
 20
1377.543755
  0
LWPOLYLINE
  5
135
100
AcDbEntity
  8
035-DWG
100
AcDbPolyline
 90
        6
 70
     0
 43
0.0
 10
400.038893
 20
1376.1724
 10
399.732347
 20
1375.398154
 42
0.395928
 10
399.833146
 20
1375.143563
 10
401.536261
 20
1374.342138
 42
0.395928
 10
401.796679
 20
1374.426753
 10
402.197846
 20
1375.156474
  0
LWPOLYLINE
  5
136
100
AcDbEntity
  8
035-DWG
100
AcDbPolyline
 90
        4
 70
     0
 43
0.0
 10
399.854432
 20
1375.706506
 42
0.417384
 10
399.740087
 20
1375.966872
 42
0.026016
 10
397.890566
 20
1376.567818
 42
0.417384
 10
397.64502
 20
1376.424388
  0
LWPOLYLINE
  5
137
100
AcDbEntity
  8
035-DWG
100
AcDbPolyline
 90
        6
 70
     0
 43
0.0
 10
395.355938
 20
1377.384509
 10
395.251571
 20
1376.558352
 42
0.395928
 10
395.412517
 20
1376.336828
 10
397.261432
 20
1375.984129
 42
0.395928
 10
397.492625
 20
1376.130848
 10
397.699715
 20
1376.93741
  0
LINE
  5
138
100
AcDbEntity
  8
025-DWG
100
AcDbLine
 10
411.82817
 20
1433.572524
 30
0.0
 11
412.584256
 21
1432.918575
 31
0.0
  0
LINE
  5
139
100
AcDbEntity
  8
025-DWG
100
AcDbLine
 10
412.584256
 20
1432.918575
 30
0.0
 11
412.778738
 21
1432.750365
 31
0.0
  0
ARC
  5
13A
100
AcDbEntity
  8
025-DWG
100
AcDbCircle
 10
410.674106
 20
1434.570689
 30
0.0
 40
2.5255
100
AcDbArc
 50
319.143028
 51
353.0
  0
LWPOLYLINE
  5
13B
100
AcDbEntity
  8
035-DWG
100
AcDbPolyline
 90
        3
 70
     0
 43
0.0
 10
412.778738
 20
1432.750365
 10
413.21913
 20
1433.441652
 10
413.439367
 20
1434.231158
  0
ARC
  5
13C
100
AcDbEntity
  8
025-DWG
100
AcDbCircle
 10
410.674106
 20
1434.570689
 30
0.0
 40
1.525843
100
AcDbArc
 50
319.143028
 51
353.0
  0
LINE
  5
13D
100
AcDbEntity
  8
025-DWG
100
AcDbLine
 10
412.188576
 20
1434.384736
 30
0.0
 11
413.180782
 21
1434.262908
 31
0.0
  0
LINE
  5
13E
100
AcDbEntity
  8
025-DWG
100
AcDbLine
 10
413.180782
 20
1434.262908
 30
0.0
 11
413.439367
 21
1434.231158
 31
0.0
  0
LINE
  5
13F
100
AcDbEntity
  8
035-DWG
100
AcDbLine
 10
413.439367
 20
1434.231158
 30
0.0
 11
413.523052
 21
1434.900139
 31
0.0
  0
LINE
  5
140
100
AcDbEntity
  8
025-DWG
100
AcDbLine
 10
412.916706
 20
1440.314878
 30
0.0
 11
412.188576
 21
1434.384736
 31
0.0
  0
LINE
  5
141
100
AcDbEntity
  8
025-DWG
100
AcDbLine
 10
413.180782
 20
1434.262908
 30
0.0
 11
413.937278
 21
1440.424072
 31
0.0
  0
LWPOLYLINE
  5
142
100
AcDbEntity
  8
025-DWG
100
AcDbPolyline
 90
        3
 70
     0
 43
0.0
 10
413.620316
 20
1437.735225
 10
413.673327
 20
1437.550611
 10
413.844395
 20
1437.455834
  0
LWPOLYLINE
  5
143
100
AcDbEntity
  8
025-DWG
100
AcDbPolyline
 90
        4
 70
     0
 43
0.0
 10
413.742185
 20
1438.727771
 10
413.761054
 20
1438.599515
 10
413.843073
 20
1438.497251
 10
413.966265
 20
1438.44838
  0
LWPOLYLINE
  5
144
100
AcDbEntity
  8
025-DWG
100
AcDbPolyline
 90
        3
 70
     0
 43
0.0
 10
413.90533
 20
1437.952107
 10
413.716415
 20
1437.901529
 10
413.620316
 20
1437.735225
  0
LINE
  5
145
100
AcDbEntity
  8
025-DWG
100
AcDbLine
 10
413.722526
 20
1436.463288
 30
0.0
 11
413.966802
 21
1436.433294
 31
0.0
  0
LINE
  5
146
100
AcDbEntity
  8
025-DWG
100
AcDbLine
 10
413.661591
 20
1435.967014
 30
0.0
 11
413.904739
 21
1435.93716
 31
0.0
  0
LINE
  5
147
100
AcDbEntity
  8
025-DWG
100
AcDbLine
 10
413.600657
 20
1435.470741
 30
0.0
 11
413.842676
 21
1435.441025
 31
0.0
  0
LINE
  5
148
100
AcDbEntity
  8
025-DWG
100
AcDbLine
 10
413.606642
 20
1434.974834
 30
0.0
 11
413.845898
 21
1434.945457
 31
0.0
  0
LWPOLYLINE
  5
149
100
AcDbEntity
  8
025-DWG
100
AcDbPolyline
 90
        4
 70
     0
 43
0.0
 10
413.376577
 20
1435.750132
 10
413.395446
 20
1435.621877
 10
413.477465
 20
1435.519613
 10
413.600657
 20
1435.470741
  0
LWPOLYLINE
  5
14A
100
AcDbEntity
  8
025-DWG
100
AcDbPolyline
 90
        6
 70
     0
 43
0.0
 10
413.600657
 20
1435.470741
 10
413.734378
 20
1435.413687
 10
413.815122
 20
1435.294979
 10
413.816836
 20
1435.152918
 10
413.738968
 20
1435.033342
 10
413.606642
 20
1434.974834
  0
LINE
  5
14B
100
AcDbEntity
  8
025-DWG
100
AcDbLine
 10
413.606642
 20
1434.974834
 30
0.0
 11
413.275937
 21
1434.930481
 31
0.0
  0
LWPOLYLINE
  5
14C
100
AcDbEntity
  8
025-DWG
100
AcDbPolyline
 90
        4
 70
     0
 43
0.0
 10
413.498446
 20
1436.742678
 10
413.517316
 20
1436.614423
 10
413.599334
 20
1436.512159
 10
413.722526
 20
1436.463288
  0
LWPOLYLINE
  5
14D
100
AcDbEntity
  8
025-DWG
100
AcDbPolyline
 90
        6
 70
     0
 43
0.0
 10
413.722526
 20
1436.463288
 10
413.866326
 20
1436.397527
 10
413.943562
 20
1436.262105
 10
413.924732
 20
1436.108748
 10
413.817029
 20
1435.996033
 10
413.661591
 20
1435.967014
  0
LWPOLYLINE
  5
14E
100
AcDbEntity
  8
025-DWG
100
AcDbPolyline
 90
        4
 70
     0
 43
0.0
 10
413.661591
 20
1435.967014
 10
413.530236
 20
1435.949398
 10
413.425914
 20
1435.870013
 10
413.376577
 20
1435.750132
  0
LWPOLYLINE
  5
14F
100
AcDbEntity
  8
025-DWG
100
AcDbPolyline
 90
        3
 70
     0
 43
0.0
 10
413.783461
 20
1436.959561
 10
413.594545
 20
1436.908983
 10
413.498446
 20
1436.742678
  0
LINE
  5
150
100
AcDbEntity
  8
025-DWG
100
AcDbLine
 10
413.523052
 20
1434.900139
 30
0.0
 11
413.275937
 21
1434.930481
 31
0.0
  0
LINE
  5
151
100
AcDbEntity
  8
035-DWG
100
AcDbLine
 10
413.523052
 20
1434.900139
 30
0.0
 11
413.845898
 21
1434.945457
 31
0.0
  0
LWPOLYLINE
  5
152
100
AcDbEntity
  8
035-DWG
100
AcDbPolyline
 90
        7
 70
     0
 43
0.0
 10
413.842676
 20
1435.441025
 10
413.722758
 20
1435.489494
 10
413.643286
 20
1435.591446
 10
413.625556
 20
1435.719562
 10
413.674317
 20
1435.839513
 10
413.776506
 20
1435.91916
 10
413.904739
 20
1435.93716
  0
LINE
  5
153
100
AcDbEntity
  8
025-DWG
100
AcDbLine
 10
414.210003
 20
1440.433472
 30
0.0
 11
414.463305
 21
1440.402371
 31
0.0
  0
LINE
  5
154
100
AcDbEntity
  8
025-DWG
100
AcDbLine
 10
414.149069
 20
1439.937199
 30
0.0
 11
414.401242
 21
1439.906236
 31
0.0
  0
LINE
  5
155
100
AcDbEntity
  8
025-DWG
100
AcDbLine
 10
414.088134
 20
1439.440926
 30
0.0
 11
414.339179
 21
1439.410102
 31
0.0
  0
LINE
  5
156
100
AcDbEntity
  8
025-DWG
100
AcDbLine
 10
414.027199
 20
1438.944653
 30
0.0
 11
414.277116
 21
1438.913967
 31
0.0
  0
LWPOLYLINE
  5
157
100
AcDbEntity
  8
025-DWG
100
AcDbPolyline
 90
        6
 70
     0
 43
0.0
 10
414.088134
 20
1439.440926
 10
414.231934
 20
1439.375165
 10
414.30917
 20
1439.239743
 10
414.29034
 20
1439.086386
 10
414.182637
 20
1438.973672
 10
414.027199
 20
1438.944653
  0
LWPOLYLINE
  5
158
100
AcDbEntity
  8
025-DWG
100
AcDbPolyline
 90
        6
 70
     0
 43
0.0
 10
414.210003
 20
1440.433472
 10
414.353804
 20
1440.367711
 10
414.43104
 20
1440.232289
 10
414.41221
 20
1440.078932
 10
414.304506
 20
1439.966218
 10
414.149069
 20
1439.937199
  0
LWPOLYLINE
  5
159
100
AcDbEntity
  8
035-DWG
100
AcDbPolyline
 90
        7
 70
     0
 43
0.0
 10
414.152991
 20
1437.921698
 10
414.281224
 20
1437.939698
 10
414.383413
 20
1438.019344
 10
414.432174
 20
1438.139296
 10
414.414444
 20
1438.267412
 10
414.334972
 20
1438.369363
 10
414.215053
 20
1438.417832
  0
LWPOLYLINE
  5
15A
100
AcDbEntity
  8
035-DWG
100
AcDbPolyline
 90
        6
 70
     0
 43
0.0
 10
414.215053
 20
1438.417832
 10
414.07512
 20
1438.483118
 10
414.000489
 20
1438.618221
 10
414.019667
 20
1438.771535
 10
414.12533
 20
1438.8845
 10
414.277116
 20
1438.913967
  0
LWPOLYLINE
  5
15B
100
AcDbEntity
  8
035-DWG
100
AcDbPolyline
 90
        6
 70
     0
 43
0.0
 10
414.277116
 20
1438.913967
 10
414.428903
 20
1438.943434
 10
414.534565
 20
1439.056399
 10
414.553744
 20
1439.209713
 10
414.479113
 20
1439.344815
 10
414.339179
 20
1439.410102
  0
LWPOLYLINE
  5
15C
100
AcDbEntity
  8
035-DWG
100
AcDbPolyline
 90
        6
 70
     0
 43
0.0
 10
414.339179
 20
1439.410102
 10
414.199245
 20
1439.475388
 10
414.124614
 20
1439.61049
 10
414.143793
 20
1439.763804
 10
414.249455
 20
1439.876769
 10
414.401242
 20
1439.906236
  0
LWPOLYLINE
  5
15D
100
AcDbEntity
  8
035-DWG
100
AcDbPolyline
 90
        6
 70
     0
 43
0.0
 10
414.401242
 20
1439.906236
 10
414.553029
 20
1439.935703
 10
414.658691
 20
1440.048668
 10
414.677869
 20
1440.201982
 10
414.603239
 20
1440.337085
 10
414.463305
 20
1440.402371
  0
LWPOLYLINE
  5
15E
100
AcDbEntity
  8
035-DWG
100
AcDbPolyline
 90
        6
 70
     0
 43
0.0
 10
414.028865
 20
1436.929429
 10
414.180652
 20
1436.958896
 10
414.286314
 20
1437.071861
 10
414.305492
 20
1437.225175
 10
414.230862
 20
1437.360277
 10
414.090928
 20
1437.425563
  0
LWPOLYLINE
  5
15F
100
AcDbEntity
  8
035-DWG
100
AcDbPolyline
 90
        7
 70
     0
 43
0.0
 10
414.090928
 20
1437.425563
 10
413.971009
 20
1437.474033
 10
413.891537
 20
1437.575984
 10
413.873807
 20
1437.7041
 10
413.922569
 20
1437.824051
 10
414.024757
 20
1437.903698
 10
414.152991
 20
1437.921698
  0
LINE
  5
160
100
AcDbEntity
  8
025-DWG
100
AcDbLine
 10
413.966265
 20
1438.44838
 30
0.0
 11
414.215053
 21
1438.417832
 31
0.0
  0
LINE
  5
161
100
AcDbEntity
  8
025-DWG
100
AcDbLine
 10
413.90533
 20
1437.952107
 30
0.0
 11
414.152991
 21
1437.921698
 31
0.0
  0
LWPOLYLINE
  5
162
100
AcDbEntity
  8
025-DWG
100
AcDbPolyline
 90
        7
 70
     0
 43
0.0
 10
413.966265
 20
1438.44838
 10
414.089456
 20
1438.399509
 10
414.171475
 20
1438.297244
 10
414.190344
 20
1438.168989
 10
414.141008
 20
1438.049108
 10
414.036685
 20
1437.969724
 10
413.90533
 20
1437.952107
  0
LWPOLYLINE
  5
163
100
AcDbEntity
  8
025-DWG
100
AcDbPolyline
 90
        4
 70
     0
 43
0.0
 10
413.864055
 20
1439.720317
 10
413.882924
 20
1439.592061
 10
413.964942
 20
1439.489797
 10
414.088134
 20
1439.440926
  0
LWPOLYLINE
  5
164
100
AcDbEntity
  8
025-DWG
100
AcDbPolyline
 90
        3
 70
     0
 43
0.0
 10
414.027199
 20
1438.944653
 10
413.838284
 20
1438.894076
 10
413.742185
 20
1438.727771
  0
LWPOLYLINE
  5
165
100
AcDbEntity
  8
025-DWG
100
AcDbPolyline
 90
        3
 70
     0
 43
0.0
 10
414.149069
 20
1439.937199
 10
413.960153
 20
1439.886622
 10
413.864055
 20
1439.720317
  0
LINE
  5
166
100
AcDbEntity
  8
025-DWG
100
AcDbLine
 10
413.844395
 20
1437.455834
 30
0.0
 11
414.090928
 21
1437.425563
 31
0.0
  0
LINE
  5
167
100
AcDbEntity
  8
025-DWG
100
AcDbLine
 10
413.783461
 20
1436.959561
 30
0.0
 11
414.028865
 21
1436.929429
 31
0.0
  0
LWPOLYLINE
  5
168
100
AcDbEntity
  8
025-DWG
100
AcDbPolyline
 90
        6
 70
     0
 43
0.0
 10
413.844395
 20
1437.455834
 10
413.988196
 20
1437.390073
 10
414.065432
 20
1437.254651
 10
414.046602
 20
1437.101294
 10
413.938898
 20
1436.98858
 10
413.783461
 20
1436.959561
  0
LWPOLYLINE
  5
169
100
AcDbEntity
  8
035-DWG
100
AcDbPolyline
 90
        6
 70
     0
 43
0.0
 10
413.845898
 20
1434.945457
 10
413.975294
 20
1435.004325
 10
414.051888
 20
1435.124057
 10
414.050965
 20
1435.266021
 10
413.972824
 20
1435.38441
 10
413.842676
 20
1435.441025
  0
LWPOLYLINE
  5
16A
100
AcDbEntity
  8
035-DWG
100
AcDbPolyline
 90
        6
 70
     0
 43
0.0
 10
413.904739
 20
1435.93716
 10
414.056526
 20
1435.966627
 10
414.162188
 20
1436.079592
 10
414.181367
 20
1436.232906
 10
414.106736
 20
1436.368008
 10
413.966802
 20
1436.433294
  0
LWPOLYLINE
  5
16B
100
AcDbEntity
  8
035-DWG
100
AcDbPolyline
 90
        6
 70
     0
 43
0.0
 10
413.966802
 20
1436.433294
 10
413.826868
 20
1436.49858
 10
413.752237
 20
1436.633682
 10
413.771416
 20
1436.786996
 10
413.877078
 20
1436.899961
 10
414.028865
 20
1436.929429
  0
CIRCLE
  5
16C
100
AcDbEntity
  8
025-DWG
100
AcDbCircle
 10
392.9
 20
1433.543755
 30
0.0
 40
0.75
  0
LWPOLYLINE
  5
16D
100
AcDbEntity
  8
025-DWG
  6
CONTINUOUS
100
AcDbPolyline
 90
       12
 70
   128
 43
0.0
 10
198.021828
 20
1669.331564
 10
196.700832
 20
1661.278873
 10
195.696992
 20
1653.132049
 10
195.01902
 20
1644.926842
 10
194.722855
 20
1638.565597
 10
194.624913
 20
1632.186428
 10
194.725187
 20
1625.80733
 10
195.023671
 20
1619.446295
 10
195.499646
 20
1613.325228
 10
196.157304
 20
1607.236826
 10
197.000516
 20
1601.149994
 10
198.021828
 20
1595.116034
  0
LWPOLYLINE
  5
16E
100
AcDbEntity
  8
025-DWG
  6
CONTINUOUS
100
AcDbPolyline
 90
       12
 70
   128
 43
0.0
 10
171.989326
 20
1596.627736
 10
171.056473
 20
1603.107249
 10
170.30818
 20
1609.63614
 10
169.744657
 20
1616.249125
 10
169.373911
 20
1622.890277
 10
169.196188
 20
1629.693997
 10
169.222335
 20
1636.502425
 10
169.455023
 20
1643.354083
 10
169.89343
 20
1650.18482
 10
170.44068
 20
1656.098332
 10
171.140271
 20
1661.980569
 10
171.989326
 20
1667.819862
  0
LWPOLYLINE
  5
16F
100
AcDbEntity
  8
025-DWG
  6
CONTINUOUS
100
AcDbPolyline
 90
       15
 70
   128
 43
0.0
 10
160.03557
 20
1680.367011
 10
158.777633
 20
1673.713086
 10
157.700694
 20
1666.983686
 10
156.809823
 20
1660.194942
 10
156.110089
 20
1653.362988
 10
155.593387
 20
1646.293425
 10
155.283873
 20
1639.190479
 10
155.182759
 20
1632.074354
 10
155.291258
 20
1624.965257
 10
155.595903
 20
1618.103838
 10
156.0946
 20
1611.264393
 10
156.784634
 20
1604.464663
 10
157.679227
 20
1597.606744
 10
158.764752
 20
1590.806651
 10
160.03557
 20
1584.080587
  0
LWPOLYLINE
  5
170
100
AcDbEntity
  8
025-DWG
  6
CONTINUOUS
100
AcDbPolyline
 90
       12
 70
   128
 43
0.0
 10
195.349287
 20
1595.056132
 10
194.011423
 20
1603.116588
 10
192.994514
 20
1611.27134
 10
192.307391
 20
1619.484606
 10
192.006905
 20
1625.852145
 10
191.907035
 20
1632.237669
 10
192.00778
 20
1638.623167
 10
192.309137
 20
1644.990628
 10
192.791249
 20
1651.129475
 10
193.457939
 20
1657.235519
 10
194.313148
 20
1663.340067
 10
195.349287
 20
1669.391466
  0
LWPOLYLINE
  5
171
100
AcDbEntity
  8
025-DWG
  6
CONTINUOUS
100
AcDbPolyline
 90
       12
 70
   128
 43
0.0
 10
172.89066
 20
1667.514088
 10
171.965514
 20
1661.120118
 10
171.222413
 20
1654.677155
 10
170.661565
 20
1648.150939
 10
170.290938
 20
1641.596637
 10
170.1107
 20
1634.881587
 10
170.131685
 20
1628.161589
 10
170.35652
 20
1621.3986
 10
170.784445
 20
1614.655968
 10
171.331632
 20
1608.712533
 10
172.034707
 20
1602.800996
 10
172.89066
 20
1596.93351
  0
LWPOLYLINE
  5
172
100
AcDbEntity
  8
035-DWG
  6
CONTINUOUS
100
AcDbPolyline
 90
       15
 70
   128
 43
0.0
 10
158.97049
 20
1584.080693
 10
157.70683
 20
1590.73461
 10
156.624993
 20
1597.464001
 10
155.730069
 20
1604.252735
 10
155.027152
 20
1611.084681
 10
154.5081
 20
1618.154234
 10
154.197179
 20
1625.25717
 10
154.095607
 20
1632.373285
 10
154.204601
 20
1639.482373
 10
154.510632
 20
1646.343769
 10
155.011598
 20
1653.183191
 10
155.70477
 20
1659.982898
 10
156.603432
 20
1666.840794
 10
157.693893
 20
1673.640863
 10
158.97049
 20
1680.366905
  0
LINE
  5
173
100
AcDbEntity
  8
025-DWG
  6
CONTINUOUS
100
AcDbLine
 10
204.413169
 20
1590.963442
 30
0.0
 11
174.638176
 21
1594.106034
 31
0.0
  0
LINE
  5
174
100
AcDbEntity
  8
025-DWG
  6
CONTINUOUS
100
AcDbLine
 10
174.656655
 20
1595.25938
 30
0.0
 11
204.15544
 21
1592.158933
 31
0.0
  0
LWPOLYLINE
  5
175
100
AcDbEntity
  8
025-DWG
  6
CONTINUOUS
100
AcDbPolyline
 90
        3
 70
   128
 43
0.0
 10
161.19318
 20
1582.909216
 10
189.467835
 20
1576.874462
 10
209.385739
 20
1572.623307
  0
LINE
  5
176
100
AcDbEntity
  8
035-DWG
  6
CONTINUOUS
100
AcDbLine
 10
209.664359
 20
1571.772145
 30
0.0
 11
160.899988
 21
1582.136543
 31
0.0
  0
LWPOLYLINE
  5
177
100
AcDbEntity
  8
025-DWG
  6
CONTINUOUS
100
AcDbPolyline
 90
        5
 70
   128
 43
0.0
 10
172.89066
 20
1596.93351
 10
173.11673
 20
1596.278339
 10
173.55194
 20
1595.740444
 10
174.150953
 20
1595.380505
 10
174.656655
 20
1595.25938
  0
LWPOLYLINE
  5
178
100
AcDbEntity
  8
025-DWG
  6
CONTINUOUS
100
AcDbPolyline
 90
        9
 70
   128
 43
0.0
 10
172.89066
 20
1596.93351
 10
172.877878
 20
1596.901026
 10
172.830519
 20
1596.86411
 10
172.750262
 20
1596.824069
 10
172.639954
 20
1596.782325
 10
172.503508
 20
1596.740359
 10
172.345765
 20
1596.699659
 10
172.17232
 20
1596.661668
 10
171.989326
 20
1596.627736
  0
LWPOLYLINE
  5
179
100
AcDbEntity
  8
025-DWG
  6
CONTINUOUS
100
AcDbPolyline
 90
        5
 70
   128
 43
0.0
 10
174.638176
 20
1594.106034
 10
173.667102
 20
1594.379724
 10
172.84606
 20
1594.956366
 10
172.255565
 20
1595.781282
 10
171.989326
 20
1596.627736
  0
LWPOLYLINE
  5
17A
100
AcDbEntity
  8
025-DWG
  6
CONTINUOUS
100
AcDbPolyline
 90
        9
 70
   128
 43
0.0
 10
174.656655
 20
1595.25938
 10
174.676176
 20
1595.23417
 10
174.689983
 20
1595.164309
 10
174.69744
 20
1595.053016
 10
174.698203
 20
1594.905417
 10
174.692238
 20
1594.728312
 10
174.679818
 20
1594.529859
 10
174.661516
 20
1594.319198
 10
174.638176
 20
1594.106034
  0
LWPOLYLINE
  5
17B
100
AcDbEntity
  8
025-DWG
  6
CONTINUOUS
100
AcDbPolyline
 90
        5
 70
   128
 43
0.0
 10
160.03557
 20
1584.080587
 10
160.224644
 20
1583.597973
 10
160.566965
 20
1583.207214
 10
161.02153
 20
1582.9567
 10
161.19318
 20
1582.909216
  0
LWPOLYLINE
  5
17C
100
AcDbEntity
  8
035-DWG
  6
CONTINUOUS
100
AcDbPolyline
 90
        5
 70
   128
 43
0.0
 10
160.899988
 20
1582.136543
 10
160.11823
 20
1582.447417
 10
159.485546
 20
1582.997958
 10
159.06916
 20
1583.730552
 10
158.97049
 20
1584.080693
  0
LWPOLYLINE
  5
17D
100
AcDbEntity
  8
025-DWG
  6
CONTINUOUS
100
AcDbPolyline
 90
        9
 70
   128
 43
0.0
 10
160.03557
 20
1584.080587
 10
159.838051
 20
1584.04269
 10
159.645083
 20
1584.014471
 10
159.464495
 20
1583.997074
 10
159.303615
 20
1583.991205
 10
159.168971
 20
1583.997103
 10
159.066027
 20
1584.014528
 10
158.998959
 20
1584.042774
 10
158.97049
 20
1584.080693
  0
LWPOLYLINE
  5
17E
100
AcDbEntity
  8
025-DWG
  6
CONTINUOUS
100
AcDbPolyline
 90
        9
 70
   128
 43
0.0
 10
161.19318
 20
1582.909216
 10
161.152692
 20
1582.747316
 10
161.110861
 20
1582.596423
 10
161.068941
 20
1582.461058
 10
161.028188
 20
1582.345278
 10
160.989822
 20
1582.252551
 10
160.954994
 20
1582.185655
 10
160.924747
 20
1582.146596
 10
160.899988
 20
1582.136543
  0
LINE
  5
17F
100
AcDbEntity
  8
025-DWG
  6
CONTINUOUS
100
AcDbLine
 10
198.021828
 20
1595.116034
 30
0.0
 11
203.668122
 21
1594.527658
 31
0.0
  0
LWPOLYLINE
  5
180
100
AcDbEntity
  8
025-DWG
  6
CONTINUOUS
100
AcDbPolyline
 90
        5
 70
   128
 43
0.0
 10
197.012479
 20
1592.909688
 10
197.243408
 20
1593.036951
 10
197.759337
 20
1593.248836
 10
198.315286
 20
1593.389421
 10
198.881901
 20
1593.451284
  0
LINE
  5
181
100
AcDbEntity
  8
025-DWG
  6
CONTINUOUS
100
AcDbLine
 10
198.328601
 20
1592.771359
 30
0.0
 11
198.77818
 21
1592.754318
 31
0.0
  0
LWPOLYLINE
  5
182
100
AcDbEntity
  8
025-DWG
  6
CONTINUOUS
100
AcDbPolyline
 90
        5
 70
   128
 43
0.0
 10
198.881901
 20
1593.451284
 10
198.9517
 20
1593.205145
 10
198.93501
 20
1593.006971
 10
198.813374
 20
1592.785756
 10
198.77818
 20
1592.754318
  0
LWPOLYLINE
  5
183
100
AcDbEntity
  8
025-DWG
  6
CONTINUOUS
100
AcDbPolyline
 90
        5
 70
   128
 43
0.0
 10
198.021828
 20
1595.116034
 10
198.258643
 20
1594.676303
 10
198.498597
 20
1594.219128
 10
198.697072
 20
1593.829495
 10
198.881901
 20
1593.451284
  0
LWPOLYLINE
  5
184
100
AcDbEntity
  8
025-DWG
  6
CONTINUOUS
100
AcDbPolyline
 90
        9
 70
   128
 43
0.0
 10
195.349287
 20
1595.056132
 10
195.415923
 20
1594.979718
 10
195.580991
 20
1594.925358
 10
195.837695
 20
1594.895292
 10
196.175467
 20
1594.890757
 10
196.5804
 20
1594.911939
 10
197.035822
 20
1594.957967
 10
197.522984
 20
1595.026945
 10
198.021828
 20
1595.116034
  0
LWPOLYLINE
  5
185
100
AcDbEntity
  8
025-DWG
  6
CONTINUOUS
100
AcDbPolyline
 90
        4
 70
   128
 43
0.0
 10
195.736261
 20
1593.043824
 10
195.636999
 20
1593.548374
 10
195.483908
 20
1594.342906
 10
195.349287
 20
1595.056132
  0
LINE
  5
186
100
AcDbEntity
  8
025-DWG
  6
CONTINUOUS
100
AcDbLine
 10
174.638176
 20
1670.341563
 30
0.0
 11
204.413169
 21
1673.484156
 31
0.0
  0
LINE
  5
187
100
AcDbEntity
  8
025-DWG
  6
CONTINUOUS
100
AcDbLine
 10
204.15544
 20
1672.288665
 30
0.0
 11
174.656655
 21
1669.188218
 31
0.0
  0
LWPOLYLINE
  5
188
100
AcDbEntity
  8
025-DWG
  6
CONTINUOUS
100
AcDbPolyline
 90
        3
 70
   128
 43
0.0
 10
209.385739
 20
1691.824291
 10
189.467835
 20
1687.573136
 10
161.19318
 20
1681.538382
  0
LINE
  5
189
100
AcDbEntity
  8
035-DWG
  6
CONTINUOUS
100
AcDbLine
 10
160.899988
 20
1682.311055
 30
0.0
 11
209.664359
 21
1692.675453
 31
0.0
  0
LWPOLYLINE
  5
18A
100
AcDbEntity
  8
025-DWG
  6
CONTINUOUS
100
AcDbPolyline
 90
        5
 70
   128
 43
0.0
 10
174.656655
 20
1669.188218
 10
174.00466
 20
1669.00433
 10
173.457274
 20
1668.61914
 10
173.061742
 20
1668.06271
 10
172.89066
 20
1667.514088
  0
LWPOLYLINE
  5
18B
100
AcDbEntity
  8
025-DWG
  6
CONTINUOUS
100
AcDbPolyline
 90
        9
 70
   128
 43
0.0
 10
172.89066
 20
1667.514088
 10
172.877878
 20
1667.546571
 10
172.830519
 20
1667.583488
 10
172.750262
 20
1667.623529
 10
172.639954
 20
1667.665273
 10
172.503508
 20
1667.707239
 10
172.345765
 20
1667.747939
 10
172.17232
 20
1667.785929
 10
171.989326
 20
1667.819862
  0
LWPOLYLINE
  5
18C
100
AcDbEntity
  8
025-DWG
  6
CONTINUOUS
100
AcDbPolyline
 90
        5
 70
   128
 43
0.0
 10
171.989326
 20
1667.819862
 10
172.320858
 20
1668.793032
 10
172.959439
 20
1669.597772
 10
173.833616
 20
1670.140995
 10
174.638176
 20
1670.341563
  0
LWPOLYLINE
  5
18D
100
AcDbEntity
  8
025-DWG
  6
CONTINUOUS
100
AcDbPolyline
 90
        9
 70
   128
 43
0.0
 10
174.656655
 20
1669.188218
 10
174.676176
 20
1669.213428
 10
174.689983
 20
1669.283289
 10
174.69744
 20
1669.394582
 10
174.698203
 20
1669.54218
 10
174.692238
 20
1669.719286
 10
174.679818
 20
1669.917739
 10
174.661516
 20
1670.1284
 10
174.638176
 20
1670.341563
  0
LWPOLYLINE
  5
18E
100
AcDbEntity
  8
025-DWG
  6
CONTINUOUS
100
AcDbPolyline
 90
        5
 70
   128
 43
0.0
 10
161.19318
 20
1681.538382
 10
160.72336
 20
1681.350599
 10
160.345555
 20
1681.020596
 10
160.094449
 20
1680.577122
 10
160.03557
 20
1680.367011
  0
LWPOLYLINE
  5
18F
100
AcDbEntity
  8
035-DWG
  6
CONTINUOUS
100
AcDbPolyline
 90
        5
 70
   128
 43
0.0
 10
158.97049
 20
1680.366905
 10
159.278158
 20
1681.155512
 10
159.831857
 20
1681.796652
 10
160.568502
 20
1682.216298
 10
160.899988
 20
1682.311055
  0
LWPOLYLINE
  5
190
100
AcDbEntity
  8
025-DWG
  6
CONTINUOUS
100
AcDbPolyline
 90
        9
 70
   128
 43
0.0
 10
160.03557
 20
1680.367011
 10
159.838051
 20
1680.404908
 10
159.645083
 20
1680.433127
 10
159.464495
 20
1680.450524
 10
159.303615
 20
1680.456393
 10
159.168971
 20
1680.450495
 10
159.066027
 20
1680.43307
 10
158.998959
 20
1680.404824
 10
158.97049
 20
1680.366905
  0
LWPOLYLINE
  5
191
100
AcDbEntity
  8
025-DWG
  6
CONTINUOUS
100
AcDbPolyline
 90
        9
 70
   128
 43
0.0
 10
161.19318
 20
1681.538382
 10
161.152692
 20
1681.700282
 10
161.110861
 20
1681.851175
 10
161.068941
 20
1681.98654
 10
161.028188
 20
1682.10232
 10
160.989822
 20
1682.195047
 10
160.954994
 20
1682.261942
 10
160.924747
 20
1682.301002
 10
160.899988
 20
1682.311055
  0
LINE
  5
192
100
AcDbEntity
  8
025-DWG
  6
CONTINUOUS
100
AcDbLine
 10
203.668122
 20
1669.91994
 30
0.0
 11
198.021828
 21
1669.331564
 31
0.0
  0
LWPOLYLINE
  5
193
100
AcDbEntity
  8
025-DWG
  6
CONTINUOUS
100
AcDbPolyline
 90
        5
 70
   128
 43
0.0
 10
198.881901
 20
1670.996314
 10
198.315286
 20
1671.058177
 10
197.759337
 20
1671.198762
 10
197.243408
 20
1671.410647
 10
197.012479
 20
1671.537909
  0
LWPOLYLINE
  5
194
100
AcDbEntity
  8
025-DWG
  6
CONTINUOUS
100
AcDbPolyline
 90
        3
 70
   128
 43
0.0
 10
198.77818
 20
1671.69328
 10
198.329164
 20
1671.676211
 10
198.328601
 20
1671.676239
  0
LWPOLYLINE
  5
195
100
AcDbEntity
  8
025-DWG
  6
CONTINUOUS
100
AcDbPolyline
 90
        5
 70
   128
 43
0.0
 10
198.77818
 20
1671.69328
 10
198.90592
 20
1671.522358
 10
198.953998
 20
1671.300145
 10
198.916605
 20
1671.081074
 10
198.881901
 20
1670.996314
  0
LWPOLYLINE
  5
196
100
AcDbEntity
  8
025-DWG
  6
CONTINUOUS
100
AcDbPolyline
 90
        7
 70
   128
 43
0.0
 10
198.881901
 20
1670.996314
 10
198.730637
 20
1670.685409
 10
198.557591
 20
1670.342995
 10
198.380097
 20
1670.001102
 10
198.193543
 20
1669.649341
 10
198.107822
 20
1669.490002
 10
198.021828
 20
1669.331564
  0
LWPOLYLINE
  5
197
100
AcDbEntity
  8
025-DWG
  6
CONTINUOUS
100
AcDbPolyline
 90
        4
 70
   128
 43
0.0
 10
195.349287
 20
1669.391466
 10
195.501953
 20
1670.199242
 10
195.662551
 20
1671.030197
 10
195.736332
 20
1671.403781
  0
LWPOLYLINE
  5
198
100
AcDbEntity
  8
025-DWG
  6
CONTINUOUS
100
AcDbPolyline
 90
        9
 70
   128
 43
0.0
 10
198.021828
 20
1669.331564
 10
197.522984
 20
1669.420653
 10
197.035822
 20
1669.489631
 10
196.5804
 20
1669.535659
 10
196.175467
 20
1669.556841
 10
195.837695
 20
1669.552306
 10
195.580991
 20
1669.522239
 10
195.415923
 20
1669.46788
 10
195.349287
 20
1669.391466
  0
ARC
  5
199
100
AcDbEntity
  8
025-DWG
100
AcDbCircle
 10
392.9
 20
1632.223799
 30
0.0
 40
164.515493
100
AcDbArc
 50
7.897933
 51
172.102067
  0
CIRCLE
  5
19A
100
AcDbEntity
  8
035-DWG
100
AcDbCircle
 10
392.9
 20
1632.223799
 30
0.0
 40
33.588675
  0
CIRCLE
  5
19B
100
AcDbEntity
  8
035-DWG
100
AcDbCircle
 10
392.9
 20
1632.223799
 30
0.0
 40
30.0
  0
LINE
  5
19C
100
AcDbEntity
  8
035-DWG
100
AcDbLine
 10
236.762271
 20
1652.377814
 30
0.0
 11
236.762271
 21
1612.069783
 31
0.0
  0
LINE
  5
19D
100
AcDbEntity
  8
035-DWG
100
AcDbLine
 10
226.968165
 20
1652.429279
 30
0.0
 11
226.968165
 21
1612.018319
 31
0.0
  0
LINE
  5
19E
100
AcDbEntity
  8
035-DWG
100
AcDbLine
 10
235.713419
 20
1652.371599
 30
0.0
 11
235.713419
 21
1612.075999
 31
0.0
  0
ARC
  5
19F
100
AcDbEntity
  8
035-DWG
100
AcDbCircle
 10
264.612672
 20
1604.31311
 30
0.0
 40
2.2
100
AcDbArc
 50
19.422035
 51
80.461406
  0
LINE
  5
1A0
100
AcDbEntity
  8
035-DWG
100
AcDbLine
 10
237.546499
 20
1609.906812
 30
0.0
 11
264.928405
 21
1605.275138
 31
0.0
  0
LINE
  5
1A1
100
AcDbEntity
  8
035-DWG
100
AcDbLine
 10
228.734211
 20
1609.861542
 30
0.0
 11
251.586754
 21
1605.2635
 31
0.0
  0
ARC
  5
1A2
100
AcDbEntity
  8
035-DWG
100
AcDbCircle
 10
264.761623
 20
1604.289144
 30
0.0
 40
1.0
100
AcDbArc
 50
20.933725
 51
80.399244
  0
LINE
  5
1A3
100
AcDbEntity
  8
025-DWG
100
AcDbLine
 10
252.231225
 20
1604.823057
 30
0.0
 11
265.695618
 21
1604.646432
 31
0.0
  0
POLYLINE
  5
1A4
100
AcDbEntity
  8
035-DWG
100
AcDb2dPolyline
 66
     1
 10
0.0
 20
0.0
 30
0.0
 70
     2
  0
VERTEX
  5
1A5
100
AcDbEntity
  8
035-DWG
100
AcDbVertex
100
AcDb2dVertex
 10
260.817444
 20
1591.4371
 30
0.0
 42
0.057529
  0
VERTEX
  5
1A6
100
AcDbEntity
  8
035-DWG
100
AcDbVertex
100
AcDb2dVertex
 10
262.331642
 20
1591.158137
 30
0.0
 42
0.057529
 70
     1
  0
VERTEX
  5
1A7
100
AcDbEntity
  8
035-DWG
100
AcDbVertex
100
AcDb2dVertex
 10
263.869574
 20
1591.231512
 30
0.0
 42
0.135368
  0
VERTEX
  5
1A8
100
AcDbEntity
  8
035-DWG
100
AcDbVertex
100
AcDb2dVertex
 10
267.111588
 20
1592.725069
 30
0.0
 42
0.135368
 70
     1
  0
VERTEX
  5
1A9
100
AcDbEntity
  8
035-DWG
100
AcDbVertex
100
AcDb2dVertex
 10
269.129701
 20
1595.669316
 30
0.0
  0
SEQEND
  5
1AA
100
AcDbEntity
  8
035-DWG
  0
POLYLINE
  5
1AB
100
AcDbEntity
  8
035-DWG
100
AcDb2dPolyline
 66
     1
 10
0.0
 20
0.0
 30
0.0
  0
VERTEX
  5
1AC
100
AcDbEntity
  8
035-DWG
100
AcDbVertex
100
AcDb2dVertex
 10
265.055531
 20
1591.539387
 30
0.0
 42
0.119813
  0
VERTEX
  5
1AD
100
AcDbEntity
  8
035-DWG
100
AcDbVertex
100
AcDb2dVertex
 10
267.89427
 20
1592.95404
 30
0.0
 42
0.135368
  0
VERTEX
  5
1AE
100
AcDbEntity
  8
035-DWG
100
AcDbVertex
100
AcDb2dVertex
 10
269.912383
 20
1595.898286
 30
0.0
  0
SEQEND
  5
1AF
100
AcDbEntity
  8
035-DWG
  0
LINE
  5
1B0
100
AcDbEntity
  8
035-DWG
100
AcDbLine
 10
252.231225
 20
1604.823057
 30
0.0
 11
260.817444
 21
1591.4371
 31
0.0
  0
ARC
  5
1B1
100
AcDbEntity
  8
035-DWG
100
AcDbCircle
 10
251.389502
 20
1604.283147
 30
0.0
 40
1.0
100
AcDbArc
 50
32.677527
 51
78.623705
  0
LINE
  5
1B2
100
AcDbEntity
  8
025-DWG
100
AcDbLine
 10
251.586754
 20
1605.2635
 30
0.0
 11
264.928405
 21
1605.275138
 31
0.0
  0
LINE
  5
1B3
100
AcDbEntity
  8
035-DWG
100
AcDbLine
 10
269.129701
 20
1595.669316
 30
0.0
 11
269.912383
 21
1595.898286
 31
0.0
  0
LINE
  5
1B4
100
AcDbEntity
  8
035-DWG
100
AcDbLine
 10
265.695618
 20
1604.646432
 30
0.0
 11
269.129701
 21
1595.669316
 31
0.0
  0
LINE
  5
1B5
100
AcDbEntity
  8
035-DWG
100
AcDbLine
 10
266.687481
 20
1605.044662
 30
0.0
 11
269.912383
 21
1595.898286
 31
0.0
  0
ARC
  5
1B6
100
AcDbEntity
  8
035-DWG
100
AcDbCircle
 10
237.762271
 20
1612.069783
 30
0.0
 40
1.0
100
AcDbArc
 50
180.0
 51
260.461406
  0
ARC
  5
1B7
100
AcDbEntity
  8
035-DWG
100
AcDbCircle
 10
229.168165
 20
1612.018319
 30
0.0
 40
2.2
100
AcDbArc
 50
180.0
 51
258.623705
  0
ARC
  5
1B8
100
AcDbEntity
  8
035-DWG
100
AcDbCircle
 10
237.913419
 20
1612.075999
 30
0.0
 40
2.2
100
AcDbArc
 50
180.0
 51
260.399244
  0
LINE
  5
1B9
100
AcDbEntity
  8
025-DWG
100
AcDbLine
 10
228.734211
 20
1609.861542
 30
0.0
 11
237.546499
 21
1609.906812
 31
0.0
  0
LINE
  5
1BA
100
AcDbEntity
  8
025-DWG
100
AcDbLine
 10
226.968165
 20
1612.018319
 30
0.0
 11
235.713419
 21
1612.075999
 31
0.0
  0
LINE
  5
1BB
100
AcDbEntity
  8
035-DWG
100
AcDbLine
 10
237.596559
 20
1611.083609
 30
0.0
 11
264.977238
 21
1606.482693
 31
0.0
  0
LINE
  5
1BC
100
AcDbEntity
  8
025-DWG
100
AcDbLine
 10
252.231225
 20
1659.624541
 30
0.0
 11
265.695618
 21
1659.801166
 31
0.0
  0
ARC
  5
1BD
100
AcDbEntity
  8
035-DWG
100
AcDbCircle
 10
264.612672
 20
1660.134488
 30
0.0
 40
2.2
100
AcDbArc
 50
279.538594
 51
340.577965
  0
ARC
  5
1BE
100
AcDbEntity
  8
035-DWG
100
AcDbCircle
 10
264.761623
 20
1660.158454
 30
0.0
 40
1.0
100
AcDbArc
 50
279.600756
 51
339.066275
  0
POLYLINE
  5
1BF
100
AcDbEntity
  8
035-DWG
100
AcDb2dPolyline
 66
     1
 10
0.0
 20
0.0
 30
0.0
  0
VERTEX
  5
1C0
100
AcDbEntity
  8
035-DWG
100
AcDbVertex
100
AcDb2dVertex
 10
265.055531
 20
1672.908211
 30
0.0
 42
-0.119813
  0
VERTEX
  5
1C1
100
AcDbEntity
  8
035-DWG
100
AcDbVertex
100
AcDb2dVertex
 10
267.89427
 20
1671.493558
 30
0.0
 42
-0.135368
  0
VERTEX
  5
1C2
100
AcDbEntity
  8
035-DWG
100
AcDbVertex
100
AcDb2dVertex
 10
269.912383
 20
1668.549312
 30
0.0
  0
SEQEND
  5
1C3
100
AcDbEntity
  8
035-DWG
  0
POLYLINE
  5
1C4
100
AcDbEntity
  8
035-DWG
100
AcDb2dPolyline
 66
     1
 10
0.0
 20
0.0
 30
0.0
 70
     2
  0
VERTEX
  5
1C5
100
AcDbEntity
  8
035-DWG
100
AcDbVertex
100
AcDb2dVertex
 10
260.817444
 20
1673.010498
 30
0.0
 42
-0.057529
  0
VERTEX
  5
1C6
100
AcDbEntity
  8
035-DWG
100
AcDbVertex
100
AcDb2dVertex
 10
262.331642
 20
1673.289461
 30
0.0
 42
-0.057529
 70
     1
  0
VERTEX
  5
1C7
100
AcDbEntity
  8
035-DWG
100
AcDbVertex
100
AcDb2dVertex
 10
263.869574
 20
1673.216086
 30
0.0
 42
-0.135368
  0
VERTEX
  5
1C8
100
AcDbEntity
  8
035-DWG
100
AcDbVertex
100
AcDb2dVertex
 10
267.111588
 20
1671.722529
 30
0.0
 42
-0.135368
 70
     1
  0
VERTEX
  5
1C9
100
AcDbEntity
  8
035-DWG
100
AcDbVertex
100
AcDb2dVertex
 10
269.129701
 20
1668.778282
 30
0.0
  0
SEQEND
  5
1CA
100
AcDbEntity
  8
035-DWG
  0
LINE
  5
1CB
100
AcDbEntity
  8
025-DWG
100
AcDbLine
 10
251.586754
 20
1659.184098
 30
0.0
 11
264.928405
 21
1659.17246
 31
0.0
  0
ARC
  5
1CC
100
AcDbEntity
  8
035-DWG
100
AcDbCircle
 10
251.389502
 20
1660.164451
 30
0.0
 40
1.0
100
AcDbArc
 50
281.376295
 51
327.322473
  0
LINE
  5
1CD
100
AcDbEntity
  8
035-DWG
100
AcDbLine
 10
252.231225
 20
1659.624541
 30
0.0
 11
260.817444
 21
1673.010498
 31
0.0
  0
LINE
  5
1CE
100
AcDbEntity
  8
025-DWG
100
AcDbLine
 10
226.968165
 20
1652.429279
 30
0.0
 11
235.713419
 21
1652.371599
 31
0.0
  0
LINE
  5
1CF
100
AcDbEntity
  8
025-DWG
100
AcDbLine
 10
228.734211
 20
1654.586056
 30
0.0
 11
237.546499
 21
1654.540786
 31
0.0
  0
ARC
  5
1D0
100
AcDbEntity
  8
035-DWG
100
AcDbCircle
 10
229.168165
 20
1652.429279
 30
0.0
 40
2.2
100
AcDbArc
 50
101.376295
 51
180.0
  0
ARC
  5
1D1
100
AcDbEntity
  8
035-DWG
100
AcDbCircle
 10
237.913419
 20
1652.371599
 30
0.0
 40
2.2
100
AcDbArc
 50
99.600756
 51
180.0
  0
ARC
  5
1D2
100
AcDbEntity
  8
035-DWG
100
AcDbCircle
 10
237.762271
 20
1652.377814
 30
0.0
 40
1.0
100
AcDbArc
 50
99.538594
 51
180.0
  0
LINE
  5
1D3
100
AcDbEntity
  8
035-DWG
100
AcDbLine
 10
237.596559
 20
1653.363989
 30
0.0
 11
264.977238
 21
1657.964905
 31
0.0
  0
LINE
  5
1D4
100
AcDbEntity
  8
035-DWG
100
AcDbLine
 10
228.734211
 20
1654.586056
 30
0.0
 11
251.586754
 21
1659.184098
 31
0.0
  0
LINE
  5
1D5
100
AcDbEntity
  8
035-DWG
100
AcDbLine
 10
237.546499
 20
1654.540786
 30
0.0
 11
264.928405
 21
1659.17246
 31
0.0
  0
LINE
  5
1D6
100
AcDbEntity
  8
035-DWG
100
AcDbLine
 10
269.129701
 20
1668.778282
 30
0.0
 11
269.912383
 21
1668.549312
 31
0.0
  0
LINE
  5
1D7
100
AcDbEntity
  8
035-DWG
100
AcDbLine
 10
266.687481
 20
1659.402936
 30
0.0
 11
269.912383
 21
1668.549312
 31
0.0
  0
LINE
  5
1D8
100
AcDbEntity
  8
035-DWG
100
AcDbLine
 10
265.695618
 20
1659.801166
 30
0.0
 11
269.129701
 21
1668.778282
 31
0.0
  0
LINE
  5
1D9
100
AcDbEntity
  8
035-DWG
100
AcDbLine
 10
549.037729
 20
1612.069783
 30
0.0
 11
549.037729
 21
1652.377814
 31
0.0
  0
LINE
  5
1DA
100
AcDbEntity
  8
035-DWG
100
AcDbLine
 10
550.086581
 20
1612.075999
 30
0.0
 11
550.086581
 21
1652.371599
 31
0.0
  0
LINE
  5
1DB
100
AcDbEntity
  8
035-DWG
100
AcDbLine
 10
557.065789
 20
1609.861542
 30
0.0
 11
534.213246
 21
1605.2635
 31
0.0
  0
LINE
  5
1DC
100
AcDbEntity
  8
035-DWG
100
AcDbLine
 10
548.253501
 20
1609.906812
 30
0.0
 11
520.871595
 21
1605.275138
 31
0.0
  0
ARC
  5
1DD
100
AcDbEntity
  8
035-DWG
100
AcDbCircle
 10
521.187328
 20
1604.31311
 30
0.0
 40
2.2
100
AcDbArc
 50
99.538594
 51
160.577965
  0
LINE
  5
1DE
100
AcDbEntity
  8
035-DWG
100
AcDbLine
 10
533.568775
 20
1604.823057
 30
0.0
 11
524.982556
 21
1591.4371
 31
0.0
  0
ARC
  5
1DF
100
AcDbEntity
  8
035-DWG
100
AcDbCircle
 10
534.410498
 20
1604.283147
 30
0.0
 40
1.0
100
AcDbArc
 50
101.376295
 51
147.322473
  0
LINE
  5
1E0
100
AcDbEntity
  8
025-DWG
100
AcDbLine
 10
534.213246
 20
1605.2635
 30
0.0
 11
520.871595
 21
1605.275138
 31
0.0
  0
LINE
  5
1E1
100
AcDbEntity
  8
035-DWG
100
AcDbLine
 10
516.670299
 20
1595.669316
 30
0.0
 11
515.887617
 21
1595.898286
 31
0.0
  0
LINE
  5
1E2
100
AcDbEntity
  8
035-DWG
100
AcDbLine
 10
520.104382
 20
1604.646432
 30
0.0
 11
516.670299
 21
1595.669316
 31
0.0
  0
LINE
  5
1E3
100
AcDbEntity
  8
035-DWG
100
AcDbLine
 10
519.112519
 20
1605.044662
 30
0.0
 11
515.887617
 21
1595.898286
 31
0.0
  0
ARC
  5
1E4
100
AcDbEntity
  8
035-DWG
100
AcDbCircle
 10
521.038377
 20
1604.289144
 30
0.0
 40
1.0
100
AcDbArc
 50
99.600756
 51
159.066275
  0
LINE
  5
1E5
100
AcDbEntity
  8
025-DWG
100
AcDbLine
 10
533.568775
 20
1604.823057
 30
0.0
 11
520.104382
 21
1604.646432
 31
0.0
  0
POLYLINE
  5
1E6
100
AcDbEntity
  8
035-DWG
100
AcDb2dPolyline
 66
     1
 10
0.0
 20
0.0
 30
0.0
 70
     2
  0
VERTEX
  5
1E7
100
AcDbEntity
  8
035-DWG
100
AcDbVertex
100
AcDb2dVertex
 10
524.982556
 20
1591.4371
 30
0.0
 42
-0.057529
  0
VERTEX
  5
1E8
100
AcDbEntity
  8
035-DWG
100
AcDbVertex
100
AcDb2dVertex
 10
523.468358
 20
1591.158137
 30
0.0
 42
-0.057529
 70
     1
  0
VERTEX
  5
1E9
100
AcDbEntity
  8
035-DWG
100
AcDbVertex
100
AcDb2dVertex
 10
521.930426
 20
1591.231512
 30
0.0
 42
-0.135368
  0
VERTEX
  5
1EA
100
AcDbEntity
  8
035-DWG
100
AcDbVertex
100
AcDb2dVertex
 10
518.688412
 20
1592.725069
 30
0.0
 42
-0.135368
 70
     1
  0
VERTEX
  5
1EB
100
AcDbEntity
  8
035-DWG
100
AcDbVertex
100
AcDb2dVertex
 10
516.670299
 20
1595.669316
 30
0.0
  0
SEQEND
  5
1EC
100
AcDbEntity
  8
035-DWG
  0
POLYLINE
  5
1ED
100
AcDbEntity
  8
035-DWG
100
AcDb2dPolyline
 66
     1
 10
0.0
 20
0.0
 30
0.0
  0
VERTEX
  5
1EE
100
AcDbEntity
  8
035-DWG
100
AcDbVertex
100
AcDb2dVertex
 10
520.744469
 20
1591.539387
 30
0.0
 42
-0.119813
  0
VERTEX
  5
1EF
100
AcDbEntity
  8
035-DWG
100
AcDbVertex
100
AcDb2dVertex
 10
517.90573
 20
1592.95404
 30
0.0
 42
-0.135368
  0
VERTEX
  5
1F0
100
AcDbEntity
  8
035-DWG
100
AcDbVertex
100
AcDb2dVertex
 10
515.887617
 20
1595.898286
 30
0.0
  0
SEQEND
  5
1F1
100
AcDbEntity
  8
035-DWG
  0
ARC
  5
1F2
100
AcDbEntity
  8
035-DWG
100
AcDbCircle
 10
547.886581
 20
1612.075999
 30
0.0
 40
2.2
100
AcDbArc
 50
279.600756
 51
0.0
  0
LINE
  5
1F3
100
AcDbEntity
  8
025-DWG
100
AcDbLine
 10
557.065789
 20
1609.861542
 30
0.0
 11
548.253501
 21
1609.906812
 31
0.0
  0
ARC
  5
1F4
100
AcDbEntity
  8
035-DWG
100
AcDbCircle
 10
548.037729
 20
1612.069783
 30
0.0
 40
1.0
100
AcDbArc
 50
279.538594
 51
0.0
  0
LINE
  5
1F5
100
AcDbEntity
  8
035-DWG
100
AcDbLine
 10
548.203441
 20
1611.083609
 30
0.0
 11
520.822762
 21
1606.482693
 31
0.0
  0
LINE
  5
1F6
100
AcDbEntity
  8
025-DWG
100
AcDbLine
 10
557.065789
 20
1654.586056
 30
0.0
 11
548.253501
 21
1654.540786
 31
0.0
  0
LINE
  5
1F7
100
AcDbEntity
  8
035-DWG
100
AcDbLine
 10
557.065789
 20
1654.586056
 30
0.0
 11
534.213246
 21
1659.184098
 31
0.0
  0
ARC
  5
1F8
100
AcDbEntity
  8
035-DWG
100
AcDbCircle
 10
547.886581
 20
1652.371599
 30
0.0
 40
2.2
100
AcDbArc
 50
0.0
 51
80.399244
  0
LINE
  5
1F9
100
AcDbEntity
  8
025-DWG
100
AcDbLine
 10
534.213246
 20
1659.184098
 30
0.0
 11
520.871595
 21
1659.17246
 31
0.0
  0
LINE
  5
1FA
100
AcDbEntity
  8
035-DWG
100
AcDbLine
 10
548.203441
 20
1653.363989
 30
0.0
 11
520.822762
 21
1657.964905
 31
0.0
  0
LINE
  5
1FB
100
AcDbEntity
  8
035-DWG
100
AcDbLine
 10
548.253501
 20
1654.540786
 30
0.0
 11
520.871595
 21
1659.17246
 31
0.0
  0
ARC
  5
1FC
100
AcDbEntity
  8
035-DWG
100
AcDbCircle
 10
534.410498
 20
1660.164451
 30
0.0
 40
1.0
100
AcDbArc
 50
212.677527
 51
258.623705
  0
ARC
  5
1FD
100
AcDbEntity
  8
035-DWG
100
AcDbCircle
 10
548.037729
 20
1652.377814
 30
0.0
 40
1.0
100
AcDbArc
 50
0.0
 51
80.461406
  0
LINE
  5
1FE
100
AcDbEntity
  8
035-DWG
100
AcDbLine
 10
533.568775
 20
1659.624541
 30
0.0
 11
524.982556
 21
1673.010498
 31
0.0
  0
LINE
  5
1FF
100
AcDbEntity
  8
035-DWG
100
AcDbLine
 10
516.670299
 20
1668.778282
 30
0.0
 11
515.887617
 21
1668.549312
 31
0.0
  0
LINE
  5
200
100
AcDbEntity
  8
035-DWG
100
AcDbLine
 10
519.112519
 20
1659.402936
 30
0.0
 11
515.887617
 21
1668.549312
 31
0.0
  0
LINE
  5
201
100
AcDbEntity
  8
035-DWG
100
AcDbLine
 10
520.104382
 20
1659.801166
 30
0.0
 11
516.670299
 21
1668.778282
 31
0.0
  0
LINE
  5
202
100
AcDbEntity
  8
025-DWG
100
AcDbLine
 10
533.568775
 20
1659.624541
 30
0.0
 11
520.104382
 21
1659.801166
 31
0.0
  0
ARC
  5
203
100
AcDbEntity
  8
035-DWG
100
AcDbCircle
 10
521.187328
 20
1660.134488
 30
0.0
 40
2.2
100
AcDbArc
 50
199.422035
 51
260.461406
  0
ARC
  5
204
100
AcDbEntity
  8
035-DWG
100
AcDbCircle
 10
521.038377
 20
1660.158454
 30
0.0
 40
1.0
100
AcDbArc
 50
200.933725
 51
260.399244
  0
POLYLINE
  5
205
100
AcDbEntity
  8
035-DWG
100
AcDb2dPolyline
 66
     1
 10
0.0
 20
0.0
 30
0.0
  0
VERTEX
  5
206
100
AcDbEntity
  8
035-DWG
100
AcDbVertex
100
AcDb2dVertex
 10
520.744469
 20
1672.908211
 30
0.0
 42
0.119813
  0
VERTEX
  5
207
100
AcDbEntity
  8
035-DWG
100
AcDbVertex
100
AcDb2dVertex
 10
517.90573
 20
1671.493558
 30
0.0
 42
0.135368
  0
VERTEX
  5
208
100
AcDbEntity
  8
035-DWG
100
AcDbVertex
100
AcDb2dVertex
 10
515.887617
 20
1668.549312
 30
0.0
  0
SEQEND
  5
209
100
AcDbEntity
  8
035-DWG
  0
POLYLINE
  5
20A
100
AcDbEntity
  8
035-DWG
100
AcDb2dPolyline
 66
     1
 10
0.0
 20
0.0
 30
0.0
 70
     2
  0
VERTEX
  5
20B
100
AcDbEntity
  8
035-DWG
100
AcDbVertex
100
AcDb2dVertex
 10
524.982556
 20
1673.010498
 30
0.0
 42
0.057529
  0
VERTEX
  5
20C
100
AcDbEntity
  8
035-DWG
100
AcDbVertex
100
AcDb2dVertex
 10
523.468358
 20
1673.289461
 30
0.0
 42
0.057529
 70
     1
  0
VERTEX
  5
20D
100
AcDbEntity
  8
035-DWG
100
AcDbVertex
100
AcDb2dVertex
 10
521.930426
 20
1673.216086
 30
0.0
 42
0.135368
  0
VERTEX
  5
20E
100
AcDbEntity
  8
035-DWG
100
AcDbVertex
100
AcDb2dVertex
 10
518.688412
 20
1671.722529
 30
0.0
 42
0.135368
 70
     1
  0
VERTEX
  5
20F
100
AcDbEntity
  8
035-DWG
100
AcDbVertex
100
AcDb2dVertex
 10
516.670299
 20
1668.778282
 30
0.0
  0
SEQEND
  5
210
100
AcDbEntity
  8
035-DWG
  0
LWPOLYLINE
  5
211
100
AcDbEntity
  8
025-DWG
  6
CONTINUOUS
100
AcDbPolyline
 90
       15
 70
   128
 43
0.0
 10
625.76443
 20
1584.080587
 10
627.022367
 20
1590.734512
 10
628.099306
 20
1597.463912
 10
628.990177
 20
1604.252655
 10
629.689911
 20
1611.08461
 10
630.206613
 20
1618.154173
 10
630.516127
 20
1625.257119
 10
630.617241
 20
1632.373244
 10
630.508742
 20
1639.482341
 10
630.204097
 20
1646.34376
 10
629.7054
 20
1653.183205
 10
629.015366
 20
1659.982935
 10
628.120773
 20
1666.840854
 10
627.035248
 20
1673.640947
 10
625.76443
 20
1680.367011
  0
LWPOLYLINE
  5
212
100
AcDbEntity
  8
025-DWG
  6
CONTINUOUS
100
AcDbPolyline
 90
       12
 70
   128
 43
0.0
 10
613.810674
 20
1667.819862
 10
614.743527
 20
1661.340349
 10
615.49182
 20
1654.811458
 10
616.055343
 20
1648.198473
 10
616.426089
 20
1641.557321
 10
616.603812
 20
1634.753601
 10
616.577665
 20
1627.945172
 10
616.344977
 20
1621.093515
 10
615.90657
 20
1614.262778
 10
615.35932
 20
1608.349266
 10
614.659729
 20
1602.467029
 10
613.810674
 20
1596.627736
  0
LWPOLYLINE
  5
213
100
AcDbEntity
  8
025-DWG
  6
CONTINUOUS
100
AcDbPolyline
 90
       12
 70
   128
 43
0.0
 10
612.90934
 20
1596.93351
 10
613.834486
 20
1603.32748
 10
614.577587
 20
1609.770443
 10
615.138435
 20
1616.296659
 10
615.509062
 20
1622.850961
 10
615.6893
 20
1629.566011
 10
615.668315
 20
1636.286008
 10
615.44348
 20
1643.048998
 10
615.015555
 20
1649.79163
 10
614.468368
 20
1655.735064
 10
613.765293
 20
1661.646601
 10
612.90934
 20
1667.514088
  0
LWPOLYLINE
  5
214
100
AcDbEntity
  8
035-DWG
  6
CONTINUOUS
100
AcDbPolyline
 90
       15
 70
   128
 43
0.0
 10
626.82951
 20
1680.366905
 10
628.09317
 20
1673.712988
 10
629.175007
 20
1666.983597
 10
630.069931
 20
1660.194863
 10
630.772848
 20
1653.362917
 10
631.2919
 20
1646.293364
 10
631.602821
 20
1639.190427
 10
631.704393
 20
1632.074313
 10
631.595399
 20
1624.965225
 10
631.289368
 20
1618.103829
 10
630.788402
 20
1611.264407
 10
630.09523
 20
1604.4647
 10
629.196568
 20
1597.606804
 10
628.106107
 20
1590.806735
 10
626.82951
 20
1584.080693
  0
LINE
  5
215
100
AcDbEntity
  8
035-DWG
100
AcDbLine
 10
558.831835
 20
1612.018319
 30
0.0
 11
558.831835
 21
1652.429279
 31
0.0
  0
LWPOLYLINE
  5
216
100
AcDbEntity
  8
025-DWG
  6
CONTINUOUS
100
AcDbPolyline
 90
       12
 70
   128
 43
0.0
 10
587.778172
 20
1595.116034
 10
589.099168
 20
1603.168725
 10
590.103008
 20
1611.315548
 10
590.78098
 20
1619.520756
 10
591.077145
 20
1625.882001
 10
591.175087
 20
1632.261169
 10
591.074813
 20
1638.640268
 10
590.776329
 20
1645.001303
 10
590.300354
 20
1651.12237
 10
589.642696
 20
1657.210772
 10
588.799484
 20
1663.297604
 10
587.778172
 20
1669.331564
  0
LWPOLYLINE
  5
217
100
AcDbEntity
  8
025-DWG
  6
CONTINUOUS
100
AcDbPolyline
 90
       12
 70
   128
 43
0.0
 10
590.450713
 20
1669.391466
 10
591.788577
 20
1661.331009
 10
592.805486
 20
1653.176258
 10
593.492609
 20
1644.962992
 10
593.793095
 20
1638.595453
 10
593.892965
 20
1632.209929
 10
593.79222
 20
1625.824431
 10
593.490863
 20
1619.45697
 10
593.008751
 20
1613.318123
 10
592.342061
 20
1607.212079
 10
591.486852
 20
1601.107531
 10
590.450713
 20
1595.056132
  0
LINE
  5
218
100
AcDbEntity
  8
035-DWG
  6
CONTINUOUS
100
AcDbLine
 10
624.900012
 20
1582.136543
 30
0.0
 11
576.135641
 21
1571.772145
 31
0.0
  0
LWPOLYLINE
  5
219
100
AcDbEntity
  8
025-DWG
  6
CONTINUOUS
100
AcDbPolyline
 90
        3
 70
   128
 43
0.0
 10
576.414261
 20
1572.623307
 10
596.332165
 20
1576.874462
 10
624.60682
 20
1582.909216
  0
LINE
  5
21A
100
AcDbEntity
  8
025-DWG
  6
CONTINUOUS
100
AcDbLine
 10
611.161824
 20
1594.106034
 30
0.0
 11
581.386831
 21
1590.963442
 31
0.0
  0
LINE
  5
21B
100
AcDbEntity
  8
025-DWG
  6
CONTINUOUS
100
AcDbLine
 10
581.64456
 20
1592.158933
 30
0.0
 11
611.143345
 21
1595.25938
 31
0.0
  0
LWPOLYLINE
  5
21C
100
AcDbEntity
  8
025-DWG
  6
CONTINUOUS
100
AcDbPolyline
 90
        5
 70
   128
 43
0.0
 10
586.918099
 20
1593.451284
 10
587.484714
 20
1593.389421
 10
588.040663
 20
1593.248836
 10
588.556592
 20
1593.036951
 10
588.787521
 20
1592.909688
  0
LWPOLYLINE
  5
21D
100
AcDbEntity
  8
025-DWG
  6
CONTINUOUS
100
AcDbPolyline
 90
        9
 70
   128
 43
0.0
 10
587.778172
 20
1595.116034
 10
588.277016
 20
1595.026945
 10
588.764178
 20
1594.957967
 10
589.2196
 20
1594.911939
 10
589.624533
 20
1594.890757
 10
589.962305
 20
1594.895292
 10
590.219009
 20
1594.925358
 10
590.384077
 20
1594.979718
 10
590.450713
 20
1595.056132
  0
LWPOLYLINE
  5
21E
100
AcDbEntity
  8
025-DWG
  6
CONTINUOUS
100
AcDbPolyline
 90
        3
 70
   128
 43
0.0
 10
587.02182
 20
1592.754318
 10
587.470836
 20
1592.771387
 10
587.471399
 20
1592.771359
  0
LWPOLYLINE
  5
21F
100
AcDbEntity
  8
025-DWG
  6
CONTINUOUS
100
AcDbPolyline
 90
        5
 70
   128
 43
0.0
 10
587.02182
 20
1592.754318
 10
586.89408
 20
1592.92524
 10
586.846002
 20
1593.147453
 10
586.883395
 20
1593.366524
 10
586.918099
 20
1593.451284
  0
LWPOLYLINE
  5
220
100
AcDbEntity
  8
025-DWG
  6
CONTINUOUS
100
AcDbPolyline
 90
        7
 70
   128
 43
0.0
 10
586.918099
 20
1593.451284
 10
587.069363
 20
1593.762189
 10
587.242409
 20
1594.104603
 10
587.419903
 20
1594.446495
 10
587.606457
 20
1594.798257
 10
587.692178
 20
1594.957595
 10
587.778172
 20
1595.116034
  0
LINE
  5
221
100
AcDbEntity
  8
025-DWG
  6
CONTINUOUS
100
AcDbLine
 10
582.131878
 20
1594.527658
 30
0.0
 11
587.778172
 21
1595.116034
 31
0.0
  0
LWPOLYLINE
  5
222
100
AcDbEntity
  8
025-DWG
  6
CONTINUOUS
100
AcDbPolyline
 90
        4
 70
   128
 43
0.0
 10
590.450713
 20
1595.056132
 10
590.298047
 20
1594.248356
 10
590.137449
 20
1593.417401
 10
590.063668
 20
1593.043817
  0
LWPOLYLINE
  5
223
100
AcDbEntity
  8
025-DWG
  6
CONTINUOUS
100
AcDbPolyline
 90
        5
 70
   128
 43
0.0
 10
611.143345
 20
1595.25938
 10
611.79534
 20
1595.443267
 10
612.342726
 20
1595.828458
 10
612.738258
 20
1596.384888
 10
612.90934
 20
1596.93351
  0
LWPOLYLINE
  5
224
100
AcDbEntity
  8
025-DWG
  6
CONTINUOUS
100
AcDbPolyline
 90
        9
 70
   128
 43
0.0
 10
612.90934
 20
1596.93351
 10
612.922122
 20
1596.901026
 10
612.969481
 20
1596.86411
 10
613.049738
 20
1596.824069
 10
613.160046
 20
1596.782325
 10
613.296492
 20
1596.740359
 10
613.454235
 20
1596.699659
 10
613.62768
 20
1596.661668
 10
613.810674
 20
1596.627736
  0
LWPOLYLINE
  5
225
100
AcDbEntity
  8
025-DWG
  6
CONTINUOUS
100
AcDbPolyline
 90
        5
 70
   128
 43
0.0
 10
613.810674
 20
1596.627736
 10
613.479142
 20
1595.654566
 10
612.840561
 20
1594.849826
 10
611.966384
 20
1594.306603
 10
611.161824
 20
1594.106034
  0
LWPOLYLINE
  5
226
100
AcDbEntity
  8
025-DWG
  6
CONTINUOUS
100
AcDbPolyline
 90
        9
 70
   128
 43
0.0
 10
611.143345
 20
1595.25938
 10
611.123824
 20
1595.23417
 10
611.110017
 20
1595.164309
 10
611.10256
 20
1595.053016
 10
611.101797
 20
1594.905417
 10
611.107762
 20
1594.728312
 10
611.120182
 20
1594.529859
 10
611.138484
 20
1594.319198
 10
611.161824
 20
1594.106034
  0
LWPOLYLINE
  5
227
100
AcDbEntity
  8
025-DWG
  6
CONTINUOUS
100
AcDbPolyline
 90
        9
 70
   128
 43
0.0
 10
625.76443
 20
1584.080587
 10
625.961949
 20
1584.04269
 10
626.154917
 20
1584.014471
 10
626.335505
 20
1583.997074
 10
626.496385
 20
1583.991205
 10
626.631029
 20
1583.997103
 10
626.733973
 20
1584.014528
 10
626.801041
 20
1584.042774
 10
626.82951
 20
1584.080693
  0
LWPOLYLINE
  5
228
100
AcDbEntity
  8
025-DWG
  6
CONTINUOUS
100
AcDbPolyline
 90
        5
 70
   128
 43
0.0
 10
624.60682
 20
1582.909216
 10
625.07664
 20
1583.096999
 10
625.454445
 20
1583.427002
 10
625.705551
 20
1583.870476
 10
625.76443
 20
1584.080587
  0
LWPOLYLINE
  5
229
100
AcDbEntity
  8
025-DWG
  6
CONTINUOUS
100
AcDbPolyline
 90
        9
 70
   128
 43
0.0
 10
624.60682
 20
1582.909216
 10
624.647308
 20
1582.747316
 10
624.689139
 20
1582.596423
 10
624.731059
 20
1582.461058
 10
624.771812
 20
1582.345278
 10
624.810178
 20
1582.252551
 10
624.845006
 20
1582.185655
 10
624.875253
 20
1582.146596
 10
624.900012
 20
1582.136543
  0
LWPOLYLINE
  5
22A
100
AcDbEntity
  8
035-DWG
  6
CONTINUOUS
100
AcDbPolyline
 90
        5
 70
   128
 43
0.0
 10
626.82951
 20
1584.080693
 10
626.521842
 20
1583.292086
 10
625.968143
 20
1582.650946
 10
625.231498
 20
1582.2313
 10
624.900012
 20
1582.136543
  0
LWPOLYLINE
  5
22B
100
AcDbEntity
  8
025-DWG
  6
CONTINUOUS
100
AcDbPolyline
 90
        3
 70
   128
 43
0.0
 10
624.60682
 20
1681.538382
 10
596.332165
 20
1687.573136
 10
576.414261
 20
1691.824291
  0
LINE
  5
22C
100
AcDbEntity
  8
035-DWG
  6
CONTINUOUS
100
AcDbLine
 10
576.135641
 20
1692.675453
 30
0.0
 11
624.900012
 21
1682.311055
 31
0.0
  0
LINE
  5
22D
100
AcDbEntity
  8
025-DWG
  6
CONTINUOUS
100
AcDbLine
 10
611.143345
 20
1669.188218
 30
0.0
 11
581.64456
 21
1672.288665
 31
0.0
  0
LINE
  5
22E
100
AcDbEntity
  8
025-DWG
  6
CONTINUOUS
100
AcDbLine
 10
581.386831
 20
1673.484156
 30
0.0
 11
611.161824
 21
1670.341563
 31
0.0
  0
LWPOLYLINE
  5
22F
100
AcDbEntity
  8
025-DWG
  6
CONTINUOUS
100
AcDbPolyline
 90
        5
 70
   128
 43
0.0
 10
588.787521
 20
1671.537909
 10
588.556592
 20
1671.410647
 10
588.040663
 20
1671.198762
 10
587.484714
 20
1671.058177
 10
586.918099
 20
1670.996314
  0
LWPOLYLINE
  5
230
100
AcDbEntity
  8
025-DWG
  6
CONTINUOUS
100
AcDbPolyline
 90
        9
 70
   128
 43
0.0
 10
590.450713
 20
1669.391466
 10
590.384077
 20
1669.46788
 10
590.219009
 20
1669.522239
 10
589.962305
 20
1669.552306
 10
589.624533
 20
1669.556841
 10
589.2196
 20
1669.535659
 10
588.764178
 20
1669.489631
 10
588.277016
 20
1669.420653
 10
587.778172
 20
1669.331564
  0
LINE
  5
231
100
AcDbEntity
  8
025-DWG
  6
CONTINUOUS
100
AcDbLine
 10
587.471399
 20
1671.676239
 30
0.0
 11
587.02182
 21
1671.69328
 31
0.0
  0
LWPOLYLINE
  5
232
100
AcDbEntity
  8
025-DWG
  6
CONTINUOUS
100
AcDbPolyline
 90
        5
 70
   128
 43
0.0
 10
586.918099
 20
1670.996314
 10
586.8483
 20
1671.242453
 10
586.86499
 20
1671.440627
 10
586.986626
 20
1671.661842
 10
587.02182
 20
1671.69328
  0
LWPOLYLINE
  5
233
100
AcDbEntity
  8
025-DWG
  6
CONTINUOUS
100
AcDbPolyline
 90
        5
 70
   128
 43
0.0
 10
587.778172
 20
1669.331564
 10
587.541357
 20
1669.771295
 10
587.301403
 20
1670.22847
 10
587.102928
 20
1670.618103
 10
586.918099
 20
1670.996314
  0
LINE
  5
234
100
AcDbEntity
  8
025-DWG
  6
CONTINUOUS
100
AcDbLine
 10
587.778172
 20
1669.331564
 30
0.0
 11
582.131878
 21
1669.91994
 31
0.0
  0
LWPOLYLINE
  5
235
100
AcDbEntity
  8
025-DWG
  6
CONTINUOUS
100
AcDbPolyline
 90
        4
 70
   128
 43
0.0
 10
590.063739
 20
1671.403773
 10
590.163001
 20
1670.899224
 10
590.316092
 20
1670.104692
 10
590.450713
 20
1669.391466
  0
LWPOLYLINE
  5
236
100
AcDbEntity
  8
025-DWG
  6
CONTINUOUS
100
AcDbPolyline
 90
        5
 70
   128
 43
0.0
 10
612.90934
 20
1667.514088
 10
612.68327
 20
1668.169259
 10
612.24806
 20
1668.707154
 10
611.649047
 20
1669.067093
 10
611.143345
 20
1669.188218
  0
LWPOLYLINE
  5
237
100
AcDbEntity
  8
025-DWG
  6
CONTINUOUS
100
AcDbPolyline
 90
        9
 70
   128
 43
0.0
 10
612.90934
 20
1667.514088
 10
612.922122
 20
1667.546571
 10
612.969481
 20
1667.583488
 10
613.049738
 20
1667.623529
 10
613.160046
 20
1667.665273
 10
613.296492
 20
1667.707239
 10
613.454235
 20
1667.747939
 10
613.62768
 20
1667.785929
 10
613.810674
 20
1667.819862
  0
LWPOLYLINE
  5
238
100
AcDbEntity
  8
025-DWG
  6
CONTINUOUS
100
AcDbPolyline
 90
        5
 70
   128
 43
0.0
 10
611.161824
 20
1670.341563
 10
612.132898
 20
1670.067874
 10
612.95394
 20
1669.491232
 10
613.544435
 20
1668.666316
 10
613.810674
 20
1667.819862
  0
LWPOLYLINE
  5
239
100
AcDbEntity
  8
025-DWG
  6
CONTINUOUS
100
AcDbPolyline
 90
        9
 70
   128
 43
0.0
 10
611.143345
 20
1669.188218
 10
611.123824
 20
1669.213428
 10
611.110017
 20
1669.283289
 10
611.10256
 20
1669.394582
 10
611.101797
 20
1669.54218
 10
611.107762
 20
1669.719286
 10
611.120182
 20
1669.917739
 10
611.138484
 20
1670.1284
 10
611.161824
 20
1670.341563
  0
LWPOLYLINE
  5
23A
100
AcDbEntity
  8
025-DWG
  6
CONTINUOUS
100
AcDbPolyline
 90
        9
 70
   128
 43
0.0
 10
624.60682
 20
1681.538382
 10
624.647308
 20
1681.700282
 10
624.689139
 20
1681.851175
 10
624.731059
 20
1681.98654
 10
624.771812
 20
1682.10232
 10
624.810178
 20
1682.195047
 10
624.845006
 20
1682.261942
 10
624.875253
 20
1682.301002
 10
624.900012
 20
1682.311055
  0
LWPOLYLINE
  5
23B
100
AcDbEntity
  8
025-DWG
  6
CONTINUOUS
100
AcDbPolyline
 90
        9
 70
   128
 43
0.0
 10
625.76443
 20
1680.367011
 10
625.961949
 20
1680.404908
 10
626.154917
 20
1680.433127
 10
626.335505
 20
1680.450524
 10
626.496385
 20
1680.456393
 10
626.631029
 20
1680.450495
 10
626.733973
 20
1680.43307
 10
626.801041
 20
1680.404824
 10
626.82951
 20
1680.366905
  0
LWPOLYLINE
  5
23C
100
AcDbEntity
  8
025-DWG
  6
CONTINUOUS
100
AcDbPolyline
 90
        5
 70
   128
 43
0.0
 10
625.76443
 20
1680.367011
 10
625.575356
 20
1680.849625
 10
625.233035
 20
1681.240384
 10
624.77847
 20
1681.490898
 10
624.60682
 20
1681.538382
  0
LWPOLYLINE
  5
23D
100
AcDbEntity
  8
035-DWG
  6
CONTINUOUS
100
AcDbPolyline
 90
        5
 70
   128
 43
0.0
 10
624.900012
 20
1682.311055
 10
625.68177
 20
1682.000181
 10
626.314454
 20
1681.44964
 10
626.73084
 20
1680.717046
 10
626.82951
 20
1680.366905
  0
ENDSEC
  0
SECTION
  2
OBJECTS
  0
DICTIONARY
  5
1A
100
AcDbDictionary
  3
ACAD_GROUP
350
18
  3
ACAD_MLINESTYLE
350
19
  0
DICTIONARY
  5
18
102
{ACAD_REACTORS
330
1A
102
}
100
AcDbDictionary
  0
DICTIONARY
  5
19
102
{ACAD_REACTORS
330
1A
102
}
100
AcDbDictionary
  3
STANDARD
350
1D
  0
MLINESTYLE
  5
1D
102
{ACAD_REACTORS
330
19
102
}
100
AcDbMlineStyle
  2
STANDARD
 70
     0
  3

 62
     0
 51
90.0
 52
90.0
 71
     2
 49
0.5
 62
   256
  6
BYLAYER
 49
-0.5
 62
   256
  6
BYLAYER
  0
ENDSEC
  0
EOF
